Oops, an error
Loading. Please wait.

Postcard From 1952 tab

version 2
version 2

Whole song

1,469 views 1 this week
2 commentsread comments
1 2 3 4 5
2 more votes to show rating
add to favorites
×
Save as Personal and add changes to this tab that will be seen only by you. Learn more ›
×
You can save this tab as Personal to edit and correct it or add notes. All changes will be seen only by you. Learn more »
launch autoscroll
font size
0
reset
how to read this tab
guitar tuner
edit
Autoscroll
slow
fast
+/-
esc
set tempo
stop
Author
This is a fantastic song to play, but there aren't many good tabs of it out there, so I
decided to have a go at it. This is only a collection of the main riffs that are at the
foreground. So essentially it's for 3 guitars put together into one tab. I'm certain 
it's not perfect so let me know if you can find any changes.

|----|-10----10----10-------|
|-11-|----11-----11----11---|
|----|o--------------------o| x3
|----|o--------------------o|
|----|----------------------|
|----|----------------------|

0:06 to 0:36
|-10----10----10-------|---------------|---------------|---------------|
|----11----11----11----|---------------|---------------|---------------|
|o---------------------|-7---7---7-----|---------------|-7---7---7----o|
|o---------------------|---8---8---8---|---------------|---8---8---8--o|
|----------------------|---------------|-5---5---5-----|---------------|
|----------------------|---------------|---6---6---6---|---------------|

0:36 to 1:06. Not easy to achieve the same sound at this part. A bassy tone plus an
octave lower may help.
|--------------------|-------------|--------------|--------------|
|--------------------|-------------|--------------|--------------|
|o-------------------|-------------|--------------|-------------o|
|o-------------------|-------------|--------------|-------------o|
|-17-----------------|-------------|-5------------|------------/-|
|-18-----------------|-------------|-6------------|------------/-|

1:06 to 1:22
|-10----------------|-------------|--------------|--------------|
|-11----------------|-------------|--------------|--------------|
|-------------------|-7-----------|--------------|-7------------|
|-------------------|-8-----------|--------------|-8------------|
|-------------------|-------------|-5------------|--------------|
|-------------------|-------------|-6------------|--------------|

1:22 to 2:22
|-------------------|-------------------|-------------------|--------------|
|-------------------|-------------------|-------------------|--------------|
|o------------------|-------------------|-------------------|-------------o|
|o---12----15-12----|----12----15-12----|----12----15-12-\--|-------------o|
|-13----13-------13-|-13----13-------13-|-13----13----------|-8-8-8-8-8-8--|
|-------------------|-------------------|-------------------|--------------|

                            1_____________2____________________________
|-------------|-------------|-------------|--------------|-------------|
|-------------|-------------|-------------|--------------|-------------|
|o------------|-------------|-------------|--------------|------------o|
|o--5---8-5---|---5---8-5---|-------------|--------------|------------o|
|-6---6-----6-|-6---6-----6-|-5---------5-|-5------------|-------------|
|-------------|-------------|-------------|--------------|-6-----------|

|-------------------|-------------------|-------------------|--------------|
|-------------------|-------------------|-------------------|--------------|
|o------------------|-------------------|-------------------|-------------o|
|o---12----15-12----|----12----15-12----|----12----15-12-\--|-------------o|
|-13----13-------13-|-13----13-------13-|-13----13----------|-8-8-8-8-8-8--|
|-------------------|-------------------|-------------------|--------------|

                            1_____________2____________________________
|-------------|-------------|-------------|--------------|-------------|
|-------------|-------------|-------------|--------------|-6-----------|
|o------------|-------------|-------------|--------------|-7----------o|
|o--5---8-5---|---5---8-5---|-------------|--------------|-8----------o|
|-6---6-----6-|-6---6-----6-|-5---------5-|-5------------|-------------|
|-------------|-------------|-------------|--------------|-------------|

2:22 to 2:52
|---1---1---1-|---1---1---1-|---1---1---1-|---1---1---1-|
|-------------|-------------|-------------|-------------|
|-3---3---3---|-0---0---2---|-------------|-------------|
|-------------|-------------|-0---0---0---|-3---3---3---|
|-------------|-------------|-------------|-------------|
|-------------|-------------|-------------|-------------|

|---1---1---1-|---1---1---1-|---1---1---1-|---1---1---1-|
|-------------|-----1-------|-------------|-----1---1---|
|-3---3---3---|-2-----------|-0---0---0---|-2-----------|
|-------------|---------0---|-------------|-------------|
|-------------|-------------|-------------|-------------|
|-------------|-------------|-------------|-------------|

|----1---1---1-|---1---1---1-|---1---1---1-|---1---1---1-|
|--------------|-------------|-------------|-------------|
|--3---3---3---|-0---0---2---|-------------|-------------|
|--------------|-------------|-0---0---0---|-3---3---3---|
|--------------|-------------|-------------|-------------|

|--------------|-------------|-------------|-------------|
|----1---1---1-|---1---1---1-|---1---1---1-|---1---1---1-|
|--------------|-------------|-------------|-------------|
|--3---3---3---|-2---2---0---|-------------|-------------|
|--------------|-------------|-0---0---0---|-3---3---3---|
|--------------|-------------|-------------|-------------|
|--------------|-------------|-------------|-------------|

|---1---1---1-|---1---1---1-|---1---1---1-|---1---1---1-|
|-------------|-----1-------|-------------|-----1---1---|
|-3---3---3---|-2-----------|-0---0---0---|-2-----------|
|-------------|---------0---|-------------|-------------|
|-------------|-------------|-------------|-------------|
|-------------|-------------|-------------|-------------|

Change to 6/8, which is why the rhythm sounds off in the last bar.
2:52 to 3:28
|-------------|-------------|-------------|-------------|
|-------------|-------------|-------------|-------------|
|-15---14--\--|-10----12-10-|-------12-10-|-------12-10-|
|-------------|-------------|-12----------|-10----------|
|-------------|-------------|-------------|-------------|
|-------------|-------------|-------------|-------------|
                                          1 and 3________2_______________
|--------------|-------------|-------------|-------------|---------------|
|--------------|-------------|-------------|-------------|---------------|
|--------------|-------------|-------------|------------o|--------------o|
|-8------7-----|--------7----|-------------|------------o|--------------o|
|--------------|-8---------8-|-------------|-------------|---------------|
|--------------|-------------|-10----10-10-|-10\8-8\6-6--|-10/11-11/13-13|

3:28 to 3:53
|--------------|--------------|--------------|-8-8-8-6-6-6-|
|----------6---|----------6---|----------6---|-------------|
|---77-------7-|---77-------7-|---77-------7-|-------------|
|-8---8--------|-8---8--------|-8---8--------|-------------|
|--------------|--------------|--------------|-------------|
|--------------|--------------|--------------|-------------|

|-10----10----10----|-10----10----10----|-8----8----8----|-11----11----11----|
|----11----11----11-|----11----11----11-|---10---10---10-|----13----13----13-|
|-------------------|-------------------|----------------|-------------------|
|-------------------|-------------------|----------------|-------------------|
|-------------------|-------------------|----------------|-------------------|
|-------------------|-------------------|----------------|-------------------|

|-10----10----10----|-10----10----10----|-8----8----8----|-13----13----13----|
|----11----11----11-|----11----11----11-|---10---10---10-|----11----11----11-|
|-------------------|-------------------|----------------|-------------------|
|-------------------|-------------------|----------------|-------------------|
|-------------------|-------------------|----------------|-------------------|
|-------------------|-------------------|----------------|-------------------|

3:53 to 4:17 and 4:17 to 4:44
|---------------------|---------------------|---------------------|------------------|
|----1313-------16----|----1313-------16----|----1313-------16----|-1818181815151515-|
|o15------15-15----15-|-15------15-15----15-|-15------15-15----15-|-1515151515151515o|
|o--------------------|---------------------|---------------------|-----------------o|
|---------------------|---------------------|---------------------|------------------|
|---------------------|---------------------|---------------------|------------------|

(Two guitars doing harmony, I think this is right).
|--------------------|--------------------|-------------------|--------------------|
|-18-18-18-18-18-18\-|-16-16-16-16-16-16\-|-15-15-15-15-15-15-|-15-15-15-15-15-15/-|
|--------------------|--------------------|-------------------|--------------------|
|--------------------|--------------------|-------------------|--------------------|
|--------------------|--------------------|-------------------|--------------------|
|--------------------|--------------------|-------------------|--------------------|
|
|--------------------|--------------------|-------------------|--------------------|
|-15-15-15-15-15-15\-|-13-13-13-13-13-13\-|-11-11-11-11-11-11-|-11-11-11-11-11-11/-|
|--------------------|--------------------|-------------------|--------------------|
|--------------------|--------------------|-------------------|--------------------|
|--------------------|--------------------|-------------------|--------------------|
|--------------------|--------------------|-------------------|--------------------|

|--------------------|--------------------|-------------------|--------------------|
|-18-18-18-18-18-18\-|-16-16-16-16-16-16\-|-15-15-15-15-15-15-|-15-15-15-15-15-15/-|
|--------------------|--------------------|-------------------|--------------------|
|--------------------|--------------------|-------------------|--------------------|
|--------------------|--------------------|-------------------|--------------------|
|--------------------|--------------------|-------------------|--------------------|
|
|--------------------|--------------------|-------------------|--------------------|
|-15-15-15-15-15-15\-|-13-13-13-13-13-13\-|-11-11-11-11-11-11-|-11-11-11-11-11-11/-|
|--------------------|--------------------|-------------------|--------------------|
|--------------------|--------------------|-------------------|--------------------|
|--------------------|--------------------|-------------------|--------------------|
|--------------------|--------------------|-------------------|--------------------|

Repeat that section plus these 2 bars:
|-------------------|-------------------|
|-15-15-15-15-15-15-|-15-15-15-15-15-15-|
|-------------------|-------------------|
|-------------------|-------------------|
|-------------------|-------------------|
|-------------------|-------------------|
|
|-------------------|-------------------|
|-11-11-11-11-11-11-|-11-11-11-11-11-11-|
|-------------------|-------------------|
|-------------------|-------------------|
|-------------------|-------------------|
|-------------------|-------------------|

4:44 to 5:15
|---------------------|---------------------|---------------------|------------------|
|----1313-------16----|----1313-------16----|----1313-------16----|-1818181815151515-|
|o15------15-15----15-|-15------15-15----15-|-15------15-15----15-|-1515151515151515o|
|o--------------------|---------------------|---------------------|-----------------o|
|---------------------|---------------------|---------------------|------------------|
|---------------------|---------------------|---------------------|------------------|

|--------------------|--------------------|-------------------|--------------------|
|-18-18-18-18-18-18\-|-16-16-16-16-16-16\-|-15-15-15-15-15-15-|-15-15-15-15-15-15\-|
|--------------------|--------------------|-------------------|--------------------|
|--------------------|--------------------|-------------------|--------------------|
|--------------------|--------------------|-------------------|--------------------|
|--------------------|--------------------|-------------------|--------------------|
|
|--------------------|--------------------|-------------------|----------------------|
|-15-15-15-15-15-15\-|-13-13-13-13-13-13\-|-11-11-11-11-11-11-|-11-11-11-11-11-11\---|
|--------------------|--------------------|-------------------|----------------------|
|--------------------|--------------------|-------------------|----------------------|
|--------------------|--------------------|-------------------|----------------------|
|--------------------|--------------------|-------------------|----------------------|
|--------------------|--------------------|-------------------|----------------------|
|-13-13-13-13-13-13\-|-11-11-11-11-11-11\-|-10-10-10-10-10-10-|-10-10-10-10-10-10/|--|
|--------------------|--------------------|-------------------|----------------------|
|--------------------|--------------------|-------------------|----------------------|
|--------------------|--------------------|-------------------|----------------------|
|--------------------|--------------------|-------------------|----------------------|
|
|--------------------|--------------------|-------------------|-------------------|
|-10-10-10-10-10-10\-|-8--8--8--8--8--8-\-|-6--6--6--6--6--6--|-6--6--6--6--6--6-/|
|--------------------|--------------------|-------------------|-------------------|
|--------------------|--------------------|-------------------|-------------------|
|--------------------|--------------------|-------------------|-------------------|
|--------------------|--------------------|-------------------|-------------------|

|-------------------|-------------------|-------------------|-------------------|
|-15-15-15-15-15-15-|-15-15-15-15-15-15-|-15-15-15-15-15-15-|-18-18-18-18-18-18-|
|-15-15-15-15-15-15-|-15-15-15-15-15-15-|-15-15-15-15-15-15-|-15-15-15-15-15-15-|
|-------------------|-------------------|-------------------|-------------------|
|-------------------|-------------------|-------------------|-------------------|
|-------------------|-------------------|-------------------|-------------------|

5:15 to 6:20
|-------------------|-------------------|-------------------|-------------------|
|-------------------|-------------------|-------------------|-------------------|
|-15-14-12----------|-15-14-12----------|-15-14-12----------|-15-15-15-15-15-15-|x4
|----------15-13-12-|----------15-13-12-|----------15-13-12-|-12-12-12-12-12-12-|
|-------------------|-------------------|-------------------|-13-13-13-13-13-13-|
|-------------------|-------------------|-------------------|-------------------|

|-----------------------|------------------------|    Not entirely sure about this part,
|-----------------------|------------------------|    but its fairly close.
|-15-1515-15-15-1515-15-|-17-1717-17-19-1919-19--|    Use distortion. Can probably leave
|-----------------------|------------------------|       out the bottom octave if you want.
|-13-1313-13-13-1313-13-|-13-1313-13-13-1313-13--|
|-----------------------|------------------------|

|-----------------------|-----------------------|
|-----------------------|-----------------------|
|-15-1515-15-15-1515-15-|-15-1515-15-15-1515-15-|
|-----------------------|-----------------------|
|-13-1313-13-13-1313-13-|-13-1313-13-13-1313-13-|
|-----------------------|-----------------------|

|-----------------------|-----------------------|
|-----------------------|-----------------------|
|-15-1515-15-15-1515-15-|-17-1717-17-19-1919-19-|
|-----------------------|-----------------------|
|-13-1313-13-13-1313-13-|-13-1313-13-13-1313-13-|
|-----------------------|-----------------------|

|-----------------------|-----------------------|
|-----------------------|-----------------------|
|-15-1515-15-15-1515-15-|-15-1515-15-15-1515-15-|
|-----------------------|-----------------------|
|-13-1313-13-13-1313-13-|-13-1313-13-13-1313-13-|
|-----------------------|-----------------------|

|-----------------------|-----------------------|
|-----------------------|-----------------------|
|-19-1919-19-19-1919-19-|-17-1717-17-19-1919-19-|
|-----------------------|-----------------------|
|-13-1313-13-13-1313-13-|-13-1313-13-13-1313-13-|
|-----------------------|-----------------------|

|-----------------------|-----------------------|
|-----------------------|-----------------------|
|-19-1919-19-19-1919-19-|-17-1717-17-19-1919-19-|
|-----------------------|-----------------------|
|-13-1313-13-13-1313-13-|-13-1313-13-13-1313-13-|
|-----------------------|-----------------------|

|-----------------------|-----------------------|
|-----------------------|-----------------------|
|-19-1919-19-19-1919-19-|-17-1717-17-19-1919-19-|
|-----------------------|-----------------------|
|-13-1313-13-13-1313-13-|-13-1313-13-13-1313-13-|
|-----------------------|-----------------------|

|-----------------------|-----------------------|
|-----------------------|-----------------------|
|-19-1919-19-19-1919-19-|-17-1717-17-19-1919-19-|
|-----------------------|-----------------------|
|-13-1313-13-13-1313-13-|-13-1313-13-13-1313-13-|
|-----------------------|-----------------------|

|-------------------|-------------------|-------------------|-------------------|
|-------------------|-------------------|-------------------|-------------------|
|-15-14-12----------|-15-14-12----------|-15-14-12----------|-15-14-12----------|x2
|----------15-13-12-|----------15-13-12-|----------15-13-12-|----------15-13-12-|
|-------------------|-------------------|-------------------|-------------------|
|-------------------|-------------------|-------------------|-------------------|

|-------------------|
|-15----------------|
|-15----------------|
|-12----------------|
|-13----------------|
|-------------------|

6:20 to 6:50
|--------------|--------------|-10-----------|-------------|-------------|-----------|
|--------------|--------------|-11-----------|-------------|-------------|-----------|
|--------------|-7------------|--------------|-7-----------|-------------|-7---------|
|--------------|-8------------|--------------|-8-----------|-------------|-8---------|
|-5------------|--------------|--------------|-------------|-5-----------|-----------|
|-6------------|--------------|--------------|-------------|-6-----------|-----------|

|-------------------|-------------------|-------------------|--------------|
|-------------------|-------------------|-------------------|--------------|
|o------------------|-------------------|-------------------|-------------o|
|o---12----15-12----|----12----15-12----|----12----15-12----|-------------o|
|-13----13-------13-|-13----13-------13-|-13----13-------13\|-8-8-8-8-8-8--|
|-------------------|-------------------|-------------------|--------------|

|-------------|-------------|-------------|
|-------------|-------------|-------------|
|-------------|-------------|-------------|
|---5---8-5---|---5---8-5---|-------------|
|-6---6-----6-|-6---6-----6-|-5-----------|
|-------------|-------------|-------------|

            
            
Suggest correction
Creating personal tab
Creating personal tab
You can edit any tab online and save it as your Personal.

You can edit, replace or remove any tab part or add personal notes – all changes will be seen only by you.

Personal tabs can be accessed anytime from any device, even offline.
Learn more »
Give kudos to tab author, rate the tab!
1 2 3 4 5
comments
print report bad tab
2 comments total.
0 reply
Pr0x1mo 289 Jul 29, 2013 09:24 AM

Dude, i'm gonna try to put this on guitarpro with your help?

0 reply
CliffBurton 51 Aug 02, 2013 10:36 PM

Yeah, sure. Some parts are kind of difficult for that because there are like 4 guitars at the same time. I've made out most of the other parts, but it gets a little distorted.

guest
You may want to rate the tab now too:
select rating
Wanna post a correction for this tab? Suggest correction