Oops, an error
Loading. Please wait.

Remember Me As A Time Of Day Tab

version 2
version 2

Whole song

2,178 views 15 this week
1 commentread comment
1 2 3 4 5
please rate
add to favorites
launch autoscroll
font size
0
reset
how to read this tab
guitar tuner
Tab Pro tools
  • play this tab
  • loop segment
  • change instrument
  • show fretboard
  • metronome
×
Best way to learn
"Remember Me As A Time Of Day"
Autoscroll
slow
fast
+/-
esc
set tempo
stop
Contributor
This is the third time i've done this cause i pressed the back button in preview mode
then the second time it didnt get posted -_- Anyway, in this tab ive tried to incorporate
the more distinct guitars in the song at certain parts.  Good 
for beginners,
remember to tune the E to D.  If you have any comments or corrections please share,
:D

I dont usually play this intro part

e|--------------------------------------------------------------------------|
B|--------------------------------------------------------------------------|
G|--------------------------------------------------------------------------|
D|--------------------------------------------------------------------------|
A|--9----10----9----7----9----10----7----(hold & repeat)--------------------|
D|--------------------------------------------------------------------------|

e|--------------------------------------------------------------------------|
B|--------------------------------------------------------------------------|
G|--------------------------------------------------------------------------|
D|---------0-------------0-------------0-------------0----------------------|
A|----0------0------0------0------0------0------0------0--------------------|
D|--0---0---------5---5---------4---4---------4---4-------------------------|

repeat that^ section

e|--------------------------------------------------------------------------|
B|--------------------------------------------------------------------------|
G|--------------------------------------------------------------------------|
D|---------0---------------0---------------0---------0----0-----------0-----|
A|----0------0-------0-------0-------0-------0------0----0-------0------0---|
D|--9---9---------11---11---------14---14---------12---11------9---9--------|

e|--------------------------------------------------------------------------|
B|--------------------------------------------------------------------------|
G|--------------------------------------------------------------------------|
D|-----------0-------------0------------------------------------------------|
A|-----0-------0------0------0----------------------------------------------|
D|--11---11---------7---7---------5-----------------------------------------|

e|--------------------------------------------------------------------------|
B|--------------------------------------------------------------------------|
G|--------------------------------------------------------------------------|
D|---------0-------------0-------------0-------------0----------------------|
A|----0------0------0------0------0------0------0------0--------------------|
D|--0---0---------5---5---------4---4---------4---4-------------------------|

repeat that^ section

e|--------------------------------------------------------------------------|
B|--------------------------------------------------------------------------|
G|--------------------------------------------------------------------------|
D|---------0---------------0---------------0---------0----0-----------0-----|
A|----0------0-------0-------0-------0-------0------0----0-------0------0---|
D|--9---9---------11---11---------14---14---------12---11------9---9--------|

e|---------------------------------------------------------------------------|
B|---------------------------------------------------------------------------|
G|---------------------------------------------------------------------------|
D|-----------0-------------0-------------------------------------------------|
A|-----0-------0------0------0------0----------------------------------------|
D|--11---11---------7---7---------5---5--4-3---------------------------------|

e|--------------------------------------------------------------------------|
B|--------------------------------------------------------------------------|
G|--9-9-9--7-7-7--6-6-6-6-6-6--9-9-9--7-7-7--6-6-6-6-6-6--7-7-7--9-9-9------|
D|--------------------------------------------------------------------------|
A|--------------------------------------------------------------------------|
D|--------------------------------------------------------------------------|

e|---------------------------------------------------------------------------|
B|----------------------------------------------10-10-10--8-8-8--7-7-7-7-7-7-|
G|--6-6-6--7-7-7-7-7-7--9-9-9--6-6-6--2-0-2----------------------------------|
D|---------------------------------------------------------------------------|
A|---------------------------------------------------------------------------|
D|---------------------------------------------------------------------------|

e|---------------------------------------------------------------------------|
B|--10-10-10--8-8-8--7-7-7-7-7-7---5-7-7-9-9-7-7-8-87-7-777----5-7-7-9-9-7-7-|
G|---------------------------------------------------------------------------|
D|---------------------------------------------------------------------------|
A|---------------------------------------------------------------------------|
D|---------------------------------------------------------------------------|

e|---------------------------------------------------------------------------|
B|--8-87-7-777---------------------------------------------------------------|
G|----------------7--14-9----7-7--14-9-6-6666----7--14-9----7-7--14-9-6-6666-|
D|---------------------------------------------------------------------------|
A|---------------------------------------------------------------------------|
D|---------------------------------------------------------------------------|

e|--------------------------------------------------------------------------|
B|--5-7-7-9-9-7-7-8-87-7-777----5-7-7-9-9-7-7-8-87-7-777--------------------|
G|---------------------------------------------------------7------6---------|
D|--------------------------------------------------------------------------|
A|--------------------------------------------------------------------------|
D|--------------------------------------------------------------------------|

e|--------------------------------------------------------------------------|
B|--------------------------------------------------------------------------|
G|--7------6------7--7---9-6-------7--7---9-6-------------------------------|
D|--------------------------------------------------------------------------|
A|---------------------------(5-4---------------5-4-if you want??)----------|
D|--------------------------------------------------------------------------|

e|--------------------------------------------------------------------------|
B|--------------------------------------------------------------------------|
G|--7--14--9--7--14--9--11---12--14---7--14--9--7--14--9--11---12--14-------|
D|--------------------------------------------------------------------------|
A|--------------------------------------------------------------------------|
D|--------------------------------------------------------------------------|

e|--------------------------------------------------------------------------|
B|--------------------------------------------------------------------------|
G|--7--14--9--7--14--9--11---12--14---7--14--9--7--14--9--11---9-7--6-------|
D|--------------------------------------------------------------------------|
A|--------------------------------------------------------------------------|
D|--------------------------------------------------------------------------|

e|--------------------------------------------------------------------------|
B|--10-10-10--8-8-8--7-7-7-7-7-7--10-10-10--8-8-8--7-7-7-7-7-7--------------|
G|--------------------------------------------------------------------------|
D|--------------------------------------------------------------------------|
A|--------------------------------------------------------------------------|
D|--------------------------------------------------------------------------|

e|--------------------------------------------------------------------------|
B|--5-7-7-9-9-7-7-8-87-7-777----5-7-7-9-9-7-7-8-87-7-777--------------------|
G|-----------------------------------------------------------7-----------6--|
D|--------------------------------------------------------------------------|
A|--------------------------------------------------------------------------|
D|--------------------------------------------------------------------------|

e|--------------------------------------------------------------------------|
B|--------------------------------------------------------------------------|
G|--7-----------6-----------7-----------------------------------------------|
D|--------------------------------------------------------------------------|
A|--------------------------------------------------------------------------|
D|-------------------------------------(pick scrape)------------------------|
comments
We did not receive enough feedback on this tab! Please rate:
print report bad tab
1 2 3 4 5
1 comment total.
0 reply
lotrav16 wrote on October 9 2015, 09:38 pm

e|---------------------------------------------------------------------------|
B|--10-10-10--8-8-8--7-7-7-7-7-7---5-7-7-9-9-7-7-8-87-7-777----5-7-7-9-9-7-7-|
G|---------------------------------------------------------------------------|
D|---------------------------------------------------------------------------|
A|---------------------------------------------------------------------------|
D|---------------------------------------------------------------------------|

I believe that the '9's should be '10's in this this part and others like it

I want to post or [tab]
guest
You may want to rate the tab now too:
select rating
Please do not post tabs as comments. Select "correction" instead!