Oops, an error
Loading. Please wait.

So Long Lonesome Tab

3,222 views 6 this week
1 commentread comment
1 2 3 4 5
please rate
add to favorites
launch autoscroll
font size
0
reset
how to read this tab
guitar tuner
Autoscroll
slow
fast
+/-
esc
set tempo
stop
Help us to improve Ultimate-Guitar.com Take our survey!
×
Author
Difficulty
novice
-----------------------------------------------------------------------------
                            So Long, Lonesome - Explosions in the Sky
-----------------------------------------------------------------------------
Tabbed by:Stubbgubben
Email:

Tuning: standard

My all time favourite EitS song. Thought i'd tab it for you. 


Intro:

e|--------------------------------|
B|--------------------------------|
G|--------------------------------|
D|----4-4-----4-4-----4-4-----4-4-|
A|-2~------2~---------------------|
E|-----------------4~------4~-----| x4

Next bit:

e|--------------------------------|
B|-6-6--6-/7--7-7--7-/9-----------|
G|--------------------------------|
D|--------------------------------|
A|--------------------------------|
E|--------------------------------| x2


e|-6-6--6-\4--9-9--9-\7--7-7--7-\6|
B|--------------------------------|
G|--------------------------------|
D|--------------------------------|
A|--------------------------------|
E|--------------------------------| x2

e|--------------------------------|
B|-7-7--7-/9--2-2--2-/4-----------|
G|--------------------------------|
D|--------------------------------|
A|--------------------------------|
E|--------------------------------| x2


Play the intro twice again and then the next bit again into the climax where this bit is played:

e|--------------------------------|
B|--------------------------------|
G|--3--3~---3--3~---3--3~---3--3~-|
D|--------------------------------|
A|--------------------------------|
E|--------------------------------| until the end

Listen to the song to get a hang of it! Great tune, easy to play. Enjoy!

/Stubbgubben
Suggest correction
Give kudos to tab author, rate the tab!
1 2 3 4 5
comments
print report bad tab
1 comment total.
0 reply
Stubbgubben 114 wrote on July 27 2011, 01:15 pm

Last bit is supposed to go like this:

e|--------------------------------|
B|--------------------------------|
G|--3--3~---3--3~---3--3~---3--3~-|
D|--------------------------------|
A|--------------------------------|
E|--------------------------------|

guest
You may want to rate the tab now too:
select rating
Please do not post tabs as comments. Select "correction" instead!