Oops, an error
Loading. Please wait.

The Birth And Death Of The Day Tab

version 1
version 1

Whole song

Interactive

7,240 views 9 this week
no commentswrite comment
1 2 3 4 5
please rate
add to favorites
launch autoscroll
font size
0
reset
how to read this tab
guitar tuner
Autoscroll
slow
fast
+/-
esc
set tempo
stop
Help us to improve Ultimate-Guitar.com Take our survey!
×
Author
Tabbed: Garo
Band: explosions in the sky
Song: the birth and death of the day
Album: All of a sudden i miss everyone
standar: tuning
Guitar: Michael James


 INTRO 
 
 DISTORSION AND LITTLE DELAY
 
 [0:05-1:38]
|-----------------|
|-----------------|
|-----------------|
|--11~---7~---2~--|
|--11~---7~---2~--|
|--9~----5~---0~--|

 [1:44-3:40] 
|--12--------12--------|
|-----10---------10----|
|---------9----------9-|
|----------------------| 
|----------------------|
|----------------------|

 [4:06-4:35]
|-------------------------------------|
|-------------------------------------|
|-------------------------------------|
|--7~-7/9~--9/4~--4/7~-77/5~-5-5/12~--| 
|--7~-7/9~--9/4~--4/7~-77/5~-5-5/12~--|
|--5~-5/7~--7/2~--2/5~-55/3~-3-3/10~--|

|----------------------------------------------|
|----------------------------------------------|
|----------------------------------------------|
|--7~-7/9~--9/4~--4/7~-77/5~-5-5/12~-12/7~--11-| 
|--7~-7/9~--9/4~--4/7~-77/5~-5-5/12~-12/7~--X--| 
|--5~-5/7~--7/2~--2/5~-55/3~-3-3/10~-10/5~--9--|

 [4:37-5:28]
|-----------------------------------------------------------------|
|-----------------------------------------------------------------|
|-----------------------------------------------------------------|
|--77777777/99999999/44444444/77777777/55555555/1212121212121212--|  
|--77777777/99999999/44444444/77777777/55555555/1212121212121212--|
|--55555555/77777777/22222222/55555555/33333333/1010101010101010--|

|-----------------------------------------------------------------|
|-----------------------------------------------------------------|
|-----------------------------------------------------------------|
|--77777777/99999999/44444444/77777777/55555555/1212121212121212--|  
|--77777777/99999999/44444444/77777777/55555555/1212121212121212--|
|--55555555/77777777/22222222/55555555/33333333/1010101010101010--|

|-----------------------------------------------------------------|
|-----------------------------------------------------------------|
|-----------------------------------------------------------------|
|--77777777/99999999/44444444/77777777/55555555/1212121212121212--|  
|--77777777/99999999/44444444/77777777/55555555/1212121212121212--|
|--55555555/77777777/22222222/55555555/33333333/1010101010101010--|

|---------------------------------------------------------------------------------|
|---------------------------------------------------------------------------------|
|---------------------------------------------------------------------------------|
|--77777777/99999999/44444444/77777777/55555555/12121212121212121212121212121212--| 
|--77777777/99999999/44444444/77777777/55555555/12121212121212121212121212121212--|
|--55555555/77777777/22222222/55555555/33333333/10101010101010101010101010101010--|

 [5:29-6:12]
|---------------------------------|
|---------------------------------|
|---------------------------------|
|--9~--9/5~--5/12~-1212-12121212--|
|--9~--9/5~--5/12~-1212-12121212--|
|--7~--7/3~--3/10~-1010-10101010--|
Suggest correction
Give kudos to tab author, rate the tab!
1 2 3 4 5
comments
print report bad tab
guest
You may want to rate the tab now too:
select rating
Please do not post tabs as comments. Select "correction" instead!