Oops, an error
Loading. Please wait.

Time Stops Tab

version 1
version 1

Solo

Interactive

16,775 views 15 this week
7 commentsread comments
1 2 3 4 5
x 11
add to favorites
launch autoscroll
font size
0
reset
how to read this tab
guitar tuner
×
Best way to learn
"Time Stops"
Autoscroll
slow
fast
+/-
esc
set tempo
stop
Author
Difficulty
  follow
intermediate
Just a fair warning - this isn't the full song but rather the difficult part that starts 
at 4:46.  It's one of my favorite lines out of any song, and one of the most difficult 
me to really get the hang of due to the left hand motion.  Listen to the song to get the timing.

-Ben Menesini

|----------------------------------------------|
|------------------------3-----2---------------|
|----2---------4-2---1-----4-----2---1-----4---|
|------4---2---------------------------2-----2-|
|------------0-----0---2-----2-----------------|
|--2-----2-------------------------0-----0-----|
Suggest correction
comments
print report bad tab
7 comments total. Showing first comments.
+2 reply
Neil Aran 123 Jun 03, 2006 04:23 PM

YES!!! I love this part of the song as well, it's absolutely amazing, one of the most beautiful guitar lines ever (IMO). Thank you so much for tabbing it out, and keep up the great work!

+3 reply
Dystiller 10 Jul 06, 2006 08:21 PM

thank the lord, i've been waiting so long for someone to tab this!

+7 reply
ductape1349 41 Jan 13, 2007 01:40 PM

if you're going to post part of a song, at least get it all right.
e|--------------------------------------------------|
b|---------------------------3-0---2----------------|
g|---2-----------4-2---1-----------------1-----4----|
d|-----4---2-------------------------------2-----0--|
a|-------------0-----0---0-2-----2---2--------------|
e|-2-----2---2-------------------------0-----0------|

guest
You may want to rate the tab now too:
select rating
Wanna post a correction for this tab? Suggest correction