Oops, an error
Loading. Please wait.

Waking Up Tab

version 1
version 1

Whole song

  • It's not perfect, but in my opinion more accurate ... Show more
43,932 views 198 this week
5 commentsread comments
1 2 3 4 5
x 36
add to favorites
×
Save as Personal and add changes to this tab that will be seen only by you. Learn more ›
×
You can save this tab as Personal to edit and correct it or add notes. All changes will be seen only by you. Learn more »
save as personal
new!
launch autoscroll
font size
0
reset
how to read this tab
guitar tuner
Autoscroll
slow
fast
+/-
esc
set tempo
stop
Author
Tuning
E A D G B E
Band: Explosions In The Sky
Song: Waking Up
Tabber: Steampunk3r

This song plays at the beginning and end of the new
movie, Last Survivor (2014), starring Mark Walburg.

While the single notes are being played, you can hear some basic 
chords (like the ones in the intro) being played along with the notes. 
The haven't been written down, but feel free to listen and try the 
different chords already written in the intro and middle.


E|-------------------------------------------------------------------------------|
B|-------------------------------1-----3---------1-------------------------------|
G|-----0------------0---------2--2--0--0------2--2--0---------0------------0-----|
D|--2--2--0------2--2--0------2--2--2--0------2--2--2------2--2--0------2--2--0--|
A|--3--2--2------3--2--2------3-----2---------3-----2------3--2--2------3--2--2--|
E|--3-----3------3-----3-----------------------------------3-----3------3-----3--|


E|-----------------------------------------------------------------------|
B|--3--5--3--0--1--5------3--5--3--0--1----3------3--5--3--0--1--5--8\3--|
G|-----------------------------------------------------------------------|
D|-----------------------------------------------------------------------|
A|-----------------------------------------------------------------------|
E|-----------------------------------------------------------------------|


E|-------------------------------------------------------------------------|
B|--3--5--3--0--1--5------3--5--3--0--1----3--3--3--3--5--3--0--1--5--8\3--|
G|-------------------------------------------------------------------------|X2
D|-------------------------------------------------------------------------|
A|-------------------------------------------------------------------------|
E|-------------------------------------------------------------------------|


E|-------------------------------------------------------------|
B|-------------------------------------------------------------|
G|--7--5--4--2--5------7--5--4--2--0--0--0/7--5--4--2--5--2/4--|
D|-------------------------------------------------------------|
A|-------------------------------------------------------------|
E|-------------------------------------------------------------|


E|--------------------------------------------------------------------|
B|-------------------------------------1-------------0----------------|
G|------------------------------2------2------2------0----------------|
D|--2------0------2------0------2------2------2------0------2------0--|
A|--3------2------3------2------3-------------0-------------3------2--|
E|--3------3------3------3----------------------------------3------3--|


E|----------------------------------------------------------------------------|
B|--1/13--13--13--13--13--13--13--12--12--12--15--15--15--17--15--15--17--15--|
G|----------------------------------------------------------------------------|
D|----------------------------------------------------------------------------|
A|----------------------------------------------------------------------------|
E|----------------------------------------------------------------------------|


E|--------------------------------------------------------------|
B|--15--13--13--15--13--12\10----10--10--10--10--10--6--5----3--|
G|--------------------------------------------------------------|
D|--------------------------------------------------------------|
A|--------------------------------------------------------------|
E|--------------------------------------------------------------|


E|----------------------------------------------------------------------------|
B|--1/13--13--13--13--13--13--13--12--12--12--15--15--15--17--15--15--17--15--|
G|----------------------------------------------------------------------------|
D|----------------------------------------------------------------------------|
A|----------------------------------------------------------------------------|
E|----------------------------------------------------------------------------|


                       **
E|----------------------------------------|
B|--15--13--15--13--12\10--10--6--5----3--|
G|----------------------------------------|
D|----------------------------------------|
A|----------------------------------------|
E|----------------------------------------|


**Secondary guitar plays this piece:
(at the designated time above)
E|-----------------------------------------|
B|-----------------------------------------|
G|--5--7--9--10--12--14--17--17--17----16--|
D|-----------------------------------------|
A|-----------------------------------------|
E|-----------------------------------------|


E|--------------------------------------------------------------|
B|--3--5--3--0--1--5----3--5--3--0--1--5--8\3-------------------|
G|-----------------------------------------------7--5--4--2--5--|
D|--------------------------------------------------------------|
A|--------------------------------------------------------------|
E|--------------------------------------------------------------|


E|---------------------------------------------------------|
B|---------------------------------------------------------|
G|--7--5--4--2----0--0--0/7--5--4--2--5----2/4----4--4--4--|
D|---------------------------------------------------------|
A|---------------------------------------------------------|
E|---------------------------------------------------------|


E|----------------------------------------------------------------------|
B|--13--13--13--13--13--13--12--12--12--15--15--15--17--15--15--17--15--|
G|----------------------------------------------------------------------|
D|----------------------------------------------------------------------|
A|----------------------------------------------------------------------|
E|----------------------------------------------------------------------|


E|---------------------------------------------------------------------|
B|--15--13--15--13--12--10----10--6--6--6--5----5--5--3----3--3--3/13--|
G|---------------------------------------------------------------------|
D|---------------------------------------------------------------------|
A|---------------------------------------------------------------------|
E|---------------------------------------------------------------------|


E|--------------------------------------------------------------------------|
B|--13--13--13--13--13--13--15--15--15--17--17--17--20--17--17--20--17--17--|
G|--------------------------------------------------------------------------|
D|--------------------------------------------------------------------------|
A|--------------------------------------------------------------------------|
E|--------------------------------------------------------------------------|


E|-----------------------------------------|
B|--20--17--17--20--17--17--20-------------|
G|--------------------------------------0--|
D|--------------------------------------2--|
A|--------------------------------------3--|
E|-----------------------------------------|


Thanks for playing!



************************************

| /  Slide up
| \  Slide down

************************************
Suggest correction
comments
print report bad tab
5 comments total. Showing first comments.
-1 reply
cordum1 10 Feb 12, 2014 07:36 AM, edited at 12:56 pm

I slowed down the mp3 for the song using song surgeon. I think the solo is wrong. First solo: 1/13--13--13--13--13--13--13--12--12--12--15--15--15--17--15--15--17--15--15--13--15--13--13--12/10 I THINK it should be: 1/13--13--13--13--13--13--15--15--15--17--15--15--17--15--15--13--15--13/10 The other solo's up at fret 13 I think are correct except for the 12. I don't think they are in the recording. Great tab!! Thanks!

+1 reply
Thereal_Sambo 10 Nov 09, 2014 03:34 PM

Original:
E|-----------------------------------------------------------------------|
B|--3--5--3--0--1--5------3--5--3--0--1----3------3--5--3--0--1--5--8\3--|
G|-----------------------------------------------------------------------|
D|-----------------------------------------------------------------------|
A|-----------------------------------------------------------------------|
E|-----------------------------------------------------------------------|

How I THINK it should be:

E|------------------------------------------------------------------3----|
B|--3--5--3--0--1--5------3--5--3--0--1----3------3--5--3--0--1--5----3--|
G|-----------------------------------------------------------------------|
D|-----------------------------------------------------------------------|
A|-----------------------------------------------------------------------|
E|-----------------------------------------------------------------------|

+1 reply
Thereal_Sambo 10 Nov 09, 2014 03:37 PM

Original:
E|-----------------------------------------------------------------------|
B|--3--5--3--0--1--5------3--5--3--0--1----3------3--5--3--0--1--5--8\3--|
G|-----------------------------------------------------------------------|
D|-----------------------------------------------------------------------|
A|-----------------------------------------------------------------------|
E|-----------------------------------------------------------------------|

How I THINK it should be:

E|------------------------------------------------------------------3----------|
B|--3--5--3--0--1--5------3--5--3--0--1----3------3--5--3--0--1--5----------3--|
G|-----------------------------------------------------------------------------|
D|-----------------------------------------------------------------------------|
A|-----------------------------------------------------------------------------|
E|-----------------------------------------------------------------------------|

guest
You may want to rate the tab now too:
select rating
Wanna post a correction for this tab? Suggest correction