Oops, an error
Loading. Please wait.

Your Hand In Mine Tab

version 5
version 5

Whole song

Interactive

159,072 views 453 this week
8 commentsread comments
1 2 3 4 5
excellent!
x 59
add to favorites
launch autoscroll
font size
0
reset
how to read this tab
guitar tuner
Autoscroll
slow
fast
+/-
esc
set tempo
stop
Help us to improve Ultimate-Guitar.com Take our survey!
×
Author
Difficulty
intermediate
Esta tablatura es para la version que subí a YouTube de Your Hand In Mine de
Explosions In The Sky. Intenté sacar todas las partes para una
guitarra, aquí les dejo el link de el video:

THIS TAB IS FOR THE VIDEO I UPLOADED TO YOUTUBE OF YOUR HAND IN MINE FROM
EXPLOSIONS IN THE SKY. I TRIED TO FIGURE OUT ALL THE PARTS FOR JUST ONE
GUITAR HERES THE LINK FOR THE VIDEO:

http://mx.youtube.com/watch?v=fNv4icbsxmg

E-mail: osnegrete.on@gmail.com
Afinacion/Tuning: Standard


 [Intro:]                                   X2
e|-11-12-14-|-7-7---------------------|-7----------------------------|
B|----------|--------9-----7----------|----10--9--10--7--10--9-7----9|
G|----------|-----9----9-----9---9-8h9|---9--9---9--9---9--9----8h9--|
D|----------|-------------------------|------------------------------|
A|----------|------------9-----0------|---------------9------0-------|
E|----------|-9-----0-----------------|-9------0--------------------9|


e|---7-----------------------|9---7----------7----------------|
B|---------9------7----------|--------10--9----7--9-7---------|
G|-----9-----9------9---9-8h9|--9---9---9--9----9----8h9-9----|
D|---------------------------|--------------------------------|
A|--------------9-----0------|---------------9----0-----------|
E|--9-----0------------------|9-------0------------------9----|

e|---7------------------------|
B|---------9------7-----------|
G|-----9-----9------9---9-8h9-|
D|----------------------------|
A|--------------9-----0-------|
E|--9-----0-------------------|

e|-7----------------------------|
B|----10--9--10--7--10--9-7----9|
G|---9--9---9--9---9--9----8h9--|
D|------------------------------|
A|---------------9------0-------|
E|-9------0--------------------9|

e|---7------------------------|
B|---------9------7-----------|
G|-----9-----9------9---9-8h9-|
D|----------------------------|
A|--------------9-----0-------|
E|--9-----0-------------------|

e|9---7----------7----------------|-7----7-----7--------|
B|--------10--9----7--9-7---------|---10---9-----10-----|
G|--9---9---9--9----9----8h9-9----|---------9--------9--|
D|--------------------------------|---------------------|
A|---------------9----0-----------|----------7-------0--|
E|9-------0------------------9----|------0--------------|


                                           Todo esto X3  Final
e|-------4--2--0--2--7--5?4h5-4----0?-0h2-0-------------|-0h2-0-|
B|-5--7-------------------------------------------------|-------|
G|-----------------------6------6-6--4--------1---2--2--|-------|
D|---6-6---4-4---------7-------6-6--4--------2-2----2-2-|-------|
A|-4-----2-------2-2-0--------4----2--------2-----0-----|-----4-|
E|-------------0--------------------------0-------------|-------|

e|-7----------------------------|
B|----10--9--10--7--10--9-7----9|
G|---9--9---9--9---9--9----8h9--|
D|------------------------------|
A|---------------9------0-------|
E|-9------0--------------------9|

e|-7----7-----7------------|
B|---10---9-----10---------|
G|---------9---------9-8h9-|
D|-------------------------|
A|----------7-------0------|
E|------0------------------|

e|9---7----------7--------------7----------------------|
B|--------10--9----7--9-7------------9----7------------|
G|--9---9---9--9----9----8h9-9----9----9----9--9-8h9---|
D|-----------------------------------------------------|
A|---------------9----0------------------7----0--------|
E|9-------0------------------9------0------------------|

e|---------------------------|
B|---------------------------|
G|---9-8---9-8--9-8---9-8----|
D|---------------------------|
A|-------0-----7----9--------|
E|-7-------------------------|

          Toca esto las veces que consideres necesarias
e|----0-----0-----0-----0----0-----------0---0-0---0--|
B|---9-9---7-7---7-7---7-7----4------0----4-4---4-4---|
G|--9---9-9---8-8---8-8---8-6--6\4--4-4----4-----4----|
D|---------------------------------2---2--------------|
A|-------------------------0------------2-----2-------|
E|-9-----0-----7-----7------------0-------------------|


e|-------------7-----------------------------------12-11-9-7---------|
B|-9-9-9--9-10--7-7-7-7-7-7-7-7-10-9\10-1010101010-------------------|
G|--9-9-9--9--9--8-8-8-8-8-8-8--------------------------------8-8h9--|
D|-------------------------------------------------------------------|
A|--------------------------------------0--------------------9-9-----|
E|-9------0-----7-------7--------------------------0-------7---------|

e|------------------------------------------------|
B|------------------------------------------------|
G|----8-8h9---------------------------------------|
D|------------------------------------------------|
A|---9-9------------------------------------------|
E|-7----------------------------------------------|

                                                    X2|La ultima vez:
e|-000-0-000-0-000-0-0-00000-000-0-000-0-000-0-0-00000|12121212121212|
B|----------------------------------------------------|--------------|
G|----------------------------------------------------|--------------|
D|----------------6-6---------------------------------|--------------|
A|----7-----9-7-----------------7-----9-7---7-7-------|--------------|
E|9-----7-----0-------------9-----7-----0-------------|--------------|

Melodía final:
e|--000-0-000-0--000-0-0---------------000-0-000-0---000-0-0-0-0-----|
B|-------------------------------------------------------------------|
G|-9-----8-----------------------------------------------------------|
D|--------------9---6-6--11/9----------------7------6-----6-7-9------|
A|-----7-----9--7--------------------11---7-----9---7---7------------|
E|-9-----7------0--------------------9------7------.0----------------|

e|--000-0-000-0--000-0-0-----000----0-----------000--0-0--00000-----|
B|-------7------9-------10p9---------10p9---------------------------|
G|-9------------------------9------------------9--------------------|
D|------------------6-6---------------------------------------------|
A|-----7-----9--7---------------7---------9----7----7-7-------------|
E|-9-----7------0-----------9------7-----------0--------------------|


E|---000--000--000--000-000-0--00000-------------|
B|---------------------------9-------------------|
G|------9---------11---9-------------------------|
D|-11---------7----------------------------------|
A|------7----------9---7---7---------------------|
E|--9---------7--------0-------------------------|


e|--000-000--000---000-0-0 00000------------------|
B|10---9---10---9---------------------------------|
G|----------------9-------------------------------|
D|------------------------------------------------|
A|-----8--------9-7---7-7-------------------------|
E|-9--------7-----0-------------------------------|

  Repite esto 2 veces:
e|-------------777-------------------------------|
B|--121212109-----109--121212109-91012-----------|
G|-----------------------------------------------|
D|-----------------------------------------------|
A|----------7-------9-7--------------------------|
E|-9----------7-------0--------------------------|


e|--------------7---7-7-5-4---------------------------|
B|-----------7--------------------------0------2p0----|
G|-6-6-6-8-9------------------6-6-6-9-8-----1---------|
D|-----------------6-----6-----------------2-2--------|
A|--7-7---7-7-7---7--7-7----7--7-7---7----2---2-------|
E|-5------------0-------------5---------0-------------|


 El ultimo acorde:
e|-0-------------------------------------------|
B|-0-------------------------------------------|
G|-6-------------------------------------------|
D|-7-------------------------------------------|
A|-7-------------------------------------------|
E|-5-------------------------------------------|


| / slide up
| \ slide down
| h hammer-on
| p pull-off
Suggest correction
What's this?
You can suggest a correction to this tab. Community and Mods will review your correction and vote to approve or reject it.
comments
print report bad tab
8 comments total. Showing first comments.
+2 reply
mheady 484 wrote on September 5 2008, 12:52 pm

this is sickening how sick this actually is. yuck! good tab, nice utube video

+3 reply
kugost 19 wrote on November 30 2008, 12:47 pm

Nice. I wanted a way to play it using one guitar. I'm like most people and can barely play one at a time.

+2 reply
Raji 13 wrote on December 2 2008, 12:30 am

This a FANTASTIC tab! Thank you so much. I agree...this arrangement is so freakin good it's crazy!

guest
You may want to rate the tab now too:
select rating
Please do not post tabs as comments. Select "correction" instead!