Oops, an error
Loading. Please wait.
We have an official Your Hand In Mine tab made by UG professional guitarists. Check out the tab »
×

Your Hand In Mine tab

2,071 views 1 this week
no commentswrite comment
1 2 3 4 5
2 more votes to show rating
add to favorites
×
Save as Personal and add changes to this tab that will be seen only by you. Learn more ›
×
You can save this tab as Personal to edit and correct it or add notes. All changes will be seen only by you. Learn more »
launch autoscroll
font size
0
reset
how to read this tab
guitar tuner
edit
Autoscroll
slow
fast
+/-
esc
set tempo
stop
Author
Difficulty
Explosions In The Sky - Your Hand In My Mind
Album - The Earth Is Not a Cold Dead Place
by goinghustler

Bueno este es mi primer aporte y previamente les digo que aprendí a tocar guitarra 
por lo tanto algunos términos o indicaciones podrían estar mal.

Nota. En realidad son 3 Guitarras pero he tratado de adaptarla para 2,
      La parte en que dice 12x7, 7 son las veces

1era Guitarra

e|-------------------------------------|
B|--12--10--9--10--7--10--9--7--5/9-9--|
G|-------------------------------------|
D|-------------------------------------|
A|-------------------------------------|
E|-------------------------------------|

e|------------------------------------|
B|--14--12--10--9--12-----------------|
G|---------------------13--11--6/9-9--|
D|------------------------------------|
A|------------------------------------|
E|------------------------------------|

e|-------------------------------------|
B|--12--10--9--10--7--10--9--7--5/9-9--|
G|-------------------------------------|
D|-------------------------------------|
A|-------------------------------------|
E|-------------------------------------|

e|------------------------------------------------------------------------|
B|------------------------------------------------------------------------|
G|--9-9-9-11-11-11-13-13-13-11-11-11-9-9-9-11-11-11-16-16-14-14-13-14-13--|
D|------------------------------------------------------------------------|
A|------------------------------------------------------------------------|
E|------------------------------------------------------------------------|

|--16----14------------------|
|-----17----17---17-17-17----|
|----------------------------|
|----------------------------|x2
|----------------------------|
|----------------------------|

e|------------------------------------------------------------------------|
B|------------------------------------------------------------------------|
G|--9-9-9-11-11-11-13-13-13-11-11-11-9-9-9-11-11-11-16-16-14-14-13-14-13--|
D|------------------------------------------------------------------------|
A|------------------------------------------------------------------------|
E|------------------------------------------------------------------------|

|--16----14-------------------|
|-----17----17---17-17-17-17--|
|-----------------------------|
|-----------------------------|
|-----------------------------|
|-----------------------------|

e|-------------------------------------|
B|--12--10--9--10--7--10--9--7--5/9-9--|
G|-------------------------------------|
D|-------------------------------------|
A|-------------------------------------|
E|-------------------------------------|


e|---------------------------------------------------------|
B|--14--12--10--9--12--------------------------------------|
G|---------------------13--11--6/9-9--8--------------------|
D|---------------------------------------9--7--9--7--------|
A|---------------------------------------------------7--9--|
E|---------------------------------------------------------|

e|----------------------------------------|
B|----------------------------------------|
G|--13-13/16-16-9-12---6-4-6/9-9-9/11-11--|
D|----------------------------------------|x2
A|----------------------------------------|
E|----------------------------------------|

e|------------------------------------------------------------------|
B|------------------------------------------------------------------|
G|--13--13-13-13-13-13--14--16/11-11--11-11-11-11--11--11-11-11-11--|
D|------------------------------------------------------------------|
A|------------------------------------------------------------------|
E|------------------------------------------------------------------|

|------------------12-12-11-11/7-7--7-7-7-7--7--7-7-7-7--|
|--------------------------------------------------------|
|--14--14-14-14-14---------------------------------------|
|--------------------------------------------------------|x4
|--------------------------------------------------------|
|--------------------------------------------------------|

Puntear rapido como "Knight of Cydonia" (Practicar)

e|--16--19--12-14--9--7-9--12--14--|
B|---------------------------------|
G|---------------------------------|
D|---------------------------------|x3
A|---------------------------------|
E|---------------------------------|

e|--16--19--12-14--9--7-9--12--14--12--|
B|-------------------------------------|
G|-------------------------------------|
D|-------------------------------------|
A|-------------------------------------|
E|-------------------------------------|

Apenas termina la parte anterior

e|---------------------------------------------|
B|---------------------------------------------|
G|--9-9-9-9-9-9-9-9-9-9-9-9-9-9-9-9-9-9-9-9-9--|
D|---------------------------------------------|Varia veces (date cuenta que se escucha 
el fondo de la canción)
A|---------------------------------------------|
E|---------------------------------------------|

e|--16----16-----------19-16-19-14-----|
B|-----17----19-17-----------------17--|
G|-------------------------------------|
D|-------------------------------------|
A|-------------------------------------|
E|-------------------------------------|

e|-------------------------------------|
B|--14----14--------------10-9-10-9----|
G|-----16----14-14-13---------------9--|
D|-------------------------------------|
A|-------------------------------------|
E|-------------------------------------|

e|----------------------------------------------------------|
B|--121212-10-9--9--121212-10-9--9--121212-10-9--9--10--12--|
G|----------------------------------------------------------|
D|----------------------------------------------------------|x2
A|----------------------------------------------------------|
E|----------------------------------------------------------|

e|-------------------------------------------------------------------|
B|--12-12-12-12-12-12-12-12-12-12-12-12-12-12-12-12-12-12-10-10-9-9--|
G|-------------------------------------------------------------------|
D|-------------------------------------------------------------------|x2
A|-------------------------------------------------------------------|
E|-------------------------------------------------------------------|

e|-----------------------------------|
B|-----------------------------------|
G|--9-9-9-9-9-9-9-9-9-9-9-9-9-9-9-9--|
D|-----------------------------------|Varias veces
A|-----------------------------------|
E|-----------------------------------|

e|----------------------------------------------|
B|--12-12-12-12-12-12-12-12-12-12-12-12-12------|
G|-----------------------------------------9-9--|
D|----------------------------------------------|x2
A|----------------------------------------------|
E|----------------------------------------------|

e|----------------------------------------|
B|--------------------------12-12-12------|
G|--13-13-13-13-13-13-13-13----------9-9--|
D|----------------------------------------|
A|----------------------------------------|
E|----------------------------------------|

e|-------------------------------|
B|-------------------------------|
G|-------------------------------|
D|--9-9-9-9-9-9-9-9-9-9-9-9-9-8--|
A|-------------------------------|
E|-------------------------------|

e|----------------------------------------------------------|
B|--121212-10-9--9--121212-10-9--9--121212-10-9--9--10--12--|
G|----------------------------------------------------------|
D|----------------------------------------------------------|x2
A|----------------------------------------------------------|
E|----------------------------------------------------------|

e|-------------------------------------------------------------------|
B|--12-12-12-12-12-12-12-12-12-12-12-12-12-12-12-12-12-12-10-10-9-9--|
G|-------------------------------------------------------------------|
D|-------------------------------------------------------------------|x2
A|-------------------------------------------------------------------|
E|-------------------------------------------------------------------|

e|-------------------------------------------------------------------------|
B|-12-121212-12-12-12-12-121212-12-12-12-12-121212-12-12-12-12-10-10-9-9-9-|
G|-------------------------------------------------------------------------|
D|-------------------------------------------------------------------------|
A|-------------------------------------------------------------------------|
E|-------------------------------------------------------------------------|

e|-------------------------------------------------------------------------|
B|-12-121212-12-12-12-12-121212-12-12-12-12-121212-12-12-12-12-10-10-9-9-9-|
G|-------------------------------------------------------------------------|
D|-------------------------------------------------------------------------|
A|-------------------------------------------------------------------------|
E|-------------------------------------------------------------------------|

e|------|
B|--12--|
G|------|
D|------|
A|------|
E|------|


2da Guitarra

e|-11-12-14-|-7-7---------------------|
B|----------|--------9-----7----------|
G|----------|-----9----9-----9---9-8h9|
D|----------|-------------------------|
A|----------|------------9-----0------|
E|----------|-9-----0-----------------|

e|--------------------------------------------------------|-------|
B|--------------------------------------------------------|-------|
G|-9-9-9-9-9-9-9-9-9-9-9-9-9-9-9-9-9-9-9-9-9-9-9-9-9-9-9--|-13-12-|
D|--------------------------------------------------------|-------|
A|--------------------------------------------------------|-------|
E|--------------------------------------------------------|-------|

e|-7-7---------------------|---------------------------------|
B|--------9-----7----------|---------------------------------|
G|-----9----9-----9---9-8h9|----9-8-----9-8-----9-8-----9-8--|
D|-------------------------|---------------------------------|
A|------------9-----0------|---------0-----------------------|
E|-9-----0-----------------|-7---------------7-------7-------|

e|--------------------------------------------------|
B|-----9---9-------7---7-------7---7-------7---7----|
G|-9-9---9---9-9-9---9---9-8-8---8---8-8-8---8---8--|
D|--------------------------------------------------|
A|--------------------------------------------------|
E|--------------------------------------------------|

e|--------------------------------------------------|
B|-----5-4-0---0-----------5-4---4-5---5-4---4-5----|
G|-6-6-------4---4-4-4-4-------4-----4-----4-----4--|
D|--------------------------------------------------|
A|--------------------------------------------------|
E|--------------------------------------------------|

e|----------------------------|------------------------------------------|
B|----------------------------|------------------------------------------|
G|-------------------7-7-9/7--|-6-6-6-6-6-6-9-9-9-9-9-9-8-8-8-8-8-8-8-8--|
D|-6-6-6-6-6-6-6-6-6----------|------------------------------------------|
A|----------------------------|------------------------------------------|
E|----------------------------|------------------------------------------|

e|------------------------------------|
B|------------------------------------|
G|------------------------------------|
D|------------------------------------|
A|---7---9---11-11-------7---9---7-7--|
E|-9---7---0-----------9---7---0------|

e|---------------------------|---------------------------------------------|
B|---------------------------|---------------------------------------------|
G|-9--8----------------------|-----------------------14-13/9-9--14-13/9-9--|
D|-------9---11-9/6-6---7-6--|-6-7-9/14-14--16--18-------------------------|
A|---------------------------|---------------------------------------------|
E|---------------------------|---------------------------------------------|

e|--------------------------------------|
B|--------------------------------------|
G|-6--9--8--11--9--13---14-13-14-13--9--|
D|--------------------------------------|
A|--------------------------------------|
E|--------------------------------------|

e|-------------------------------------------|
B|-12x7-11x2-10x2-11x6-10x2------------------|
G|--------------------------12x2-9x6-11x6-9--|
D|-------------------------------------------|
A|-------------------------------------------|
E|-------------------------------------------|

e|---------------------------------|
B|---------------------------------|
G|-6--8--9--11/4-4----6--9--8/4-4--|
D|---------------------------------|
A|---------------------------------|
E|---------------------------------|

e|-------------------------|
B|-------------------------|
G|-9-8/4-4--6-4/1-1--2--1--|
D|-------------------------|
A|-------------------------|
E|-------------------------|

e|-------------------------------------------|
B|-------------------------------------------|
G|-1-2-4/9-9--11--13---14-13/9-9--14-13/9-9--|
D|-------------------------------------------|
A|-------------------------------------------|
E|-------------------------------------------|

e|----|
B|----|
G|-4--|
D|----|
A|----|
E|----|

            
            
Suggest correction
Creating personal tab
Creating personal tab
You can edit any tab online and save it as your Personal.

You can edit, replace or remove any tab part or add personal notes – all changes will be seen only by you.

Personal tabs can be accessed anytime from any device, even offline.
Learn more »
Give kudos to tab author, rate the tab!
1 2 3 4 5
comments
print report bad tab
guest
You may want to rate the tab now too:
select rating
Wanna post a correction for this tab? Suggest correction