Oops, an error
Loading. Please wait.

Your Hand In Mine Tab

version 7
version 7
1,252 views 1 this week
no commentswrite comment
1 2 3 4 5
please rate
add to favorites
launch autoscroll
font size
0
reset
how to read this tab
guitar tuner
Tab Pro tools
  • play this tab
  • loop segment
  • change instrument
  • show fretboard
  • metronome
×
Best way to learn
"Your Hand In Mine"
Autoscroll
slow
fast
+/-
esc
set tempo
stop
Contributor
-------------------------------------------------------------------------------
                             Your Hand in Mine - Explosions in the Sky
-------------------------------------------------------------------------------
Email:hckygirl1616@yahoo.com

This is my version of the song. It is accurate, but it's only played on one guitar.
Just listen to the song for the exact pattern its played in.
It looks a lot harder/longer than it actually is, give it a shot!
Enjoy!
any questions/suggestions email me.


Tuning: Standard

e|---11-----12----14---------------------------------------------------------|
B|---------------------------------------------------------------------------|
G|---------------------------------------------------------------------------|
D|---------------------------------------------------------------------------|
A|---------------------------------------------------------------------------|
E|---------------------------------------------------------------------------|

e|---------------------------------------------------------------------------|
B|-----5---12---5--------9--5--------7--5-------5--4/5--2--------------------|
G|---------------------------------------------------------------------------|
D|---------------------------------------------------------------------------|
A|---------------------------------------------------------------------------|
E|---------------------------------------------------------------------------|
                                       X2

e|---------------------------------------------------------------------------|
B|--12--12--10--5-------9--9--10--5--------7--7--10--5------9--7--4----------|
G|---------------------------------------------------------------------------|
D|---------------------------------------------------------------------------|
A|---------------------------------------------------------------------------|
E|---------------------------------------------------------------------------|

e|---------------------------------------------------------------------------|
B|--12--5-------9--5------7--5-------5--4/5--2-------------------------------|
G|---------------------------------------------------------------------------|
D|---------------------------------------------------------------------------|
A|---------------------------------------------------------------------------|
E|---------------------------------------------------------------------------|
                                       X3


e|---------------------------------------------------------------------------|
B|--12--12--10--5--------9--9--10--5------7--7--10--5-------9--7--4----------|
G|---------------------------------------------------------------------------|
D|---------------------------------------------------------------------------|
A|---------------------------------------------------------------------------|
E|---------------------------------------------------------------------------|


e|---------------------------------------------------------------------------|
B|--12--5-------9--5------7--5-------5--4/5--2-------------------------------|
G|---------------------------------------------------------------------------|
D|---------------------------------------------------------------------------|
A|---------------------------------------------------------------------------|
E|---------------------------------------------------------------------------|
                                       X3


e|---------------------------------------------------------------------------|
B|--5--5-----7--7-----9--9---7--4--5--5--7--7/12------10/11--10--------------|
G|---------------------------------------------------------------------------|
D|---------------------------------------------------------------------------|
A|---------------------------------------------------------------------------|
E|---------------------------------------------------------------------------|

e|---------------------------------------------------------------------------|
B|--12--19--17--------12--19--17------17--17--17--17-------------------------|
G|---------------------------------------------------------------------------|
D|---------------------------------------------------------------------------|
A|---------------------------------------------------------------------------|
E|---------------------------------------------------------------------------|
                                        X3


e|----------------------------------------------------------------------------|
B|--12--12--10--5--------9--9--10--5-------7--7--10--5-------9--7--4----------|
G|----------------------------------------------------------------------------|
D|----------------------------------------------------------------------------|
A|----------------------------------------------------------------------------|
E|----------------------------------------------------------------------------|


e|---------------------------------------------------------------------------|
B --12--5-------9--5-------7--5-------5--4/5--2------------------------------|
G|---------------------------------------------------------------------------|
D|---------------------------------------------------------------------------|
A|---------------------------------------------------------------------------|
E|---------------------------------------------------------------------------|
                                        X3

e|---------------------------------------------------------------------------|
B|--5--4---------------------------------------------------------------------|
G|---------------------------------------------------------------------------|
D|---------------------------------------------------------------------------|
A|---------------------------------------------------------------------------|
E|---------------------------------------------------------------------------|
                                        X3

e|---------------------------------------------------------------------------|
B|--5--9--5--9--5--------5--7--5--7--5-------4--7--4--7--4-----4--7--4--7--4-|
G|---------------------------------------------------------------------------|
D|---------------------------------------------------------------------------|
A|---------------------------------------------------------------------------|
E|---------------------------------------------------------------------------|

e|---------------------------------------------------------------------------|
B|--4--5--4--2--0--0----------4--5--7--5--4--------4--5--7--5--4-------------|
G|---------------------------------------------------------------------------|
D|---------------------------------------------------------------------------|
A|---------------------------------------------------------------------------|
E|---------------------------------------------------------------------------|
                                         X7


e|---------------------------------------------------------------------------|
B|------5--5--5--5--5---------5--5--5--5--5------5--5--5--5--5-------5--5--5-|
G|---------------------------------------------------------------------------|
D|--2------------------------------------------------------------------------|
A|----------------------2----------------------------------------------------|
E|--------------------------------------------0------------------0-----------|
                                        X9

e|--7--7--7--5--4--------7--7--7--5--4-------7--7--7--5--4------4--5--7------|
B|---------------------------------------------------------------------------|
G|---------------------------------------------------------------------------|
D|---------------------------------------------------------------------------|
A|---------------------------------------------------------------------------|
E|---------------------------------------------------------------------------|
                                        X2


e|--7--7--7--7----------7--7--7--7------7--7--7--7-----7--5--5--4--4----------|
B|----------------------------------------------------------------------------|
G|----------------------------------------------------------------------------|
D|----------------------------------------------------------------------------|
A|----------------------------------------------------------------------------|
E|----------------------------------------------------------------------------|
                                        X2


e|---------------------------------------------------------------------------|
B|------5--5--5--5--5---------5--5--5--5--5------5--5--5--5--5-------5--5--5-|
G|---------------------------------------------------------------------------|
D|--2------------------------------------------------------------------------|
A|----------------------2----------------------------------------------------|
E|--------------------------------------------0------------------0-----------|
                                        X9

e|--7--7--7--5--4--------7--7--7--5--4-------7--7--7--5--4------4--5--7------|
B|---------------------------------------------------------------------------|
G|---------------------------------------------------------------------------|
D|---------------------------------------------------------------------------|
A|---------------------------------------------------------------------------|
E|---------------------------------------------------------------------------|
                                        X2


e|--7--7--7--7----------7--7--7--7------7--7--7--7-----7--5--5--4--4---------|
B|---------------------------------------------------------------------------|
G|---------------------------------------------------------------------------|
D|---------------------------------------------------------------------------|
A|---------------------------------------------------------------------------|
E|---------------------------------------------------------------------------|
                                        X4


e|--11--12--14---------------------------------------------------------------|
B|---------------------------------------------------------------------------|
G|---------------------------------------------------------------------------|
D|---------------------------------------------------------------------------|
A|---------------------------------------------------------------------------|
E|---------------------------------------------------------------------------|

************************************

| /   slide up
| \   slide down
| h   hammer-on
| p   pull-off
| ~   vibrato
| +   harmonic
| x   Mute note
| b   Bend
| pb  Pre-bend
| br  Bend release
| pbr Pre-bend release
| brb Bend release bend

************************************
comments
We did not receive enough feedback on this tab! Please rate:
print report bad tab
1 2 3 4 5
I want to post or [tab]
guest
You may want to rate the tab now too:
select rating
Please do not post tabs as comments. Select "correction" instead!