Oops, an error
Loading. Please wait.

Your Hand In Mine Tab

version 8
1,264 views 6 this week
no commentswrite comment
1 2 3 4 5
please rate
add to favorites
launch autoscroll
font size
0
reset
how to read this tab
guitar tuner
Tab Pro tools
  • play this tab
  • loop segment
  • change instrument
  • show fretboard
  • metronome
×
Best way to learn
"Your Hand In Mine"
Autoscroll
slow
fast
+/-
esc
set tempo
stop
Contributor
-----------------------------------------------------------------------------
               YOUR HAND IN MINE (goodbye) - EXPLOSIONS IN THE SKY
-----------------------------------------------------------------------------
Tabbed by:FORTYSIX
Email:fortysix-and2@hotmail.com

This is the guitar and bass all in one. It's a bit tweaked from the original version but 
its arranged the same.

Tuning: eBGDAE

e|--------------------------------------------------------------------------|
B|--------------------------------------------------------------------------|
G|---9-9-9---9---9-9-9----9----9-9-9----------9-9-9----9----9-9-9---9-------|
D|--------------------------------------------------------------------------|
A|---------7------------9------------9/11--11-------11------------7---------|
E|-9-----------7-------------0----------------------------9-----------7-----|

e|--------------------------------------------------------------------------|
B|--------------------------------------------------------------------------|
G|-9-9-9---9---9-9-9---9---9-9-9---9----------------------------------------|
D|--------------------------------------------------------------------------|
A|-------9-----------7---7-------7------------------------------------------|
E|-----------0--------------------------------------------------------------|

e|--------------------------------------------------------------------------|
B|--------------------------------------------------------------------------|
G|-9-----8-----------------------------------------------------9------11----|
D|-------------9-----------11-9--6-----7-----6-----6/7-7/9-9----------------|
A|----7-----9-----9/11-11-----------7-----9-----7------------------7--------|
E|-9-----7-----0-----------------9-----7-----0-----------------9------7-----|

e|--------------------------------------------------------------------------|
B|----9--------------10-9----------10-9-------------------------------------|
G|-------------------------9----------------9-------------------------------|
D|--------------------------------------------------------------------------|
A|-9------9/11--11------------7----------9------7--7~-----------------------|
E|----0--------------------9-----7----------0-------------------------------|

e|--------------------------------------------------------------------------|
B|------------------------9------------10/9-9--------10/9-9-----------------|
G|-6h9-9------8h11-11-------------------------------------------9-----------|
D|--------------------------------------------------------------------------|
A|--------7------------9-----9h11-11-----------7-------------9-------7--7---|
E|-9----------7-----------0------------9----------7-------------0-----------|

e|--------------------------------------------------------------------------|
B|---12121210-9----12121210-9----12121210------9-10-12----------------------|
G|--------------------------------------------------------------------------|
D|--------------------------------------------------------------------------|
A|------------7-------------9-------------9/11-11---------------------------|
E|-9--------------7------------0--------------------------------------------|

e|--------------------------------------------------------------------------|
B|--------------------------------------------------------------------------|
G|-6-6/8-8/9-9/11--11/16-1616161616-1414-1313--6--9-8/4--4-44444/2/1--------|
D|--------------------------------------------------------------------------|
A|-0-------------------------------------------0----------------------------|
E|-----------------0-------------------------------------0------------------|

This part is a bit confusing.
e|--------------------------------------------------------------------------|
B|-12-12-12-12-12-12-12-12-10-10-9-9--10-10-10-10-10-10-10p9----------------|
G|------------------------------------------------------------11------------|
D|--------------------------------------------------------------------------|
A|-------------------7-----------9------------------------------------------|
E|-9----------------------------------0-------------------------------------|

e|--------------------------------------------------------------------------|
B|--------------------------------------------------------------------------|
G|-9-9-9-9-9-11-11-11-11-11-11-9--------------------------------------------|
D|--------------------------------------------------------------------------|
A|-------7---------------9---------7--7-------------------------------------|
E|-9---------7-----------------0--------------------------------------------|

e|--------------------------------------------------------------------------|
B|--------------------------------------------------------------------------|
G|-6-6/8-8/9-9/11--11/16-1616161616-1414-1313--6--9-8\4--4-44444\2\1--------|
D|--------------------------------------------------------------------------|
A|-0-------------------------------------------0----------------------------|
E|-----------------0-------------------------------------0------------------|

e|--------------------------------------------------------------------------|
B|--------------------------------------------------------------------------|
G|-9-----8------------------------------------------------------------------|
D|-------------9-----------11-9--6-----7-------6----------------------------|
A|----7-----9-----9/11-11-----------7-----9---------------------------------|
E|-9-----7-----0-----------------9-----7-----0------------------------------|


************************************

| /   slide up
| \   slide down
| h   hammer-on
| p   pull-off
| ~   vibrato
| +   harmonic
| x   Mute note
| b   Bend
| pb  Pre-bend
| br  Bend release
| pbr Pre-bend release
| brb Bend release bend

************************************
comments
We did not receive enough feedback on this tab! Please rate:
print report bad tab
1 2 3 4 5
I want to post or [tab]
guest
You may want to rate the tab now too:
select rating
Please do not post tabs as comments. Select "correction" instead!