Oops, an error
Loading. Please wait.

Layers Of My Flesh Bass Tab

34 views 1 this week
no commentswrite comment
1 2 3 4 5
3 more votes to show rating
add to favorites
launch autoscroll
font size
0
reset
guitar tuner
Autoscroll
slow
fast
+/-
esc
set tempo
stop
Help us to improve Ultimate-Guitar.com Take our survey!
×
Author
Difficulty
Tuning
intermediate
B E A D F# B
About this tab version
This tab was largely possible thru the band's playthrough video on youtube and learning by ear. Was this info helpful? Yes No
SONG NAME: Layers of my Flesh
Tabbed by: IJRohy
Tuning: BEADG (low to high)

The band's playthrough video - https://www.youtube.com/watch?v=aBH3leIO-BI

[Intro rhythm]
G|---------------------------------------------------------------|
D|---------------------------------------------------------------| 
A|---------------------------------------------------------------| x4
E|---------------------------------------------------------------|
B|-0xxxx-xxxx-0-10-0xxxx-xxxx-0-12-------------------------------| 1-0 and 1-2 not 10 and 12

[Intro/Verse lead]
G|--8-8-8-8-8-8-8-8-9-9-9-9-9-9-9-9------------------------------|
D|-7-7-7-7-7-7-7-7-8-8-8-8-8-8-8-8-------------------------------|
A|---------------------------------------------------------------| 
E|---------------------------------------------------------------|
B|---------------------------------------------------------------|

[Verse rhythm]
G|---------------------------------------------------------------|
D|---------------------------------------------------------------|
A|---------------------------------------------------------------| x2 
E|---------------------------------------------------------------|
B|-xxxx-xxx-x0-xxxx-xxx-x0-xxxx-xxx-x0xxxx-xxx-x0----------------|

[Chorus]
G|---------------------------------------------------------------|
D|---------------------------------------------------------------|
A|--------3^---------------3-------------------------------------| x2
E|---------------------------------------------------------------|
B|-00000-0--00000-04^-00000-00003x31-----------------------------|

[Repeat verse, then chorus and then intro]

[Bridge A]
G|---------------------------------------------------------------|
D|---------------------------------------------------------------|
A|---------------------------------------------------------------| 1-3 not 13
E|---------------------------------------------------------------|
B|-0-010-013-0-010-013-0-13-0-13-0-010-0-000---------------------|

[Bridge B]
G|---------------------------------------------------------------|
D|---------------------------------------------------------------| 
A|-3-2-----6-5------3-2-----6-5----------------------------------| x2
E|-----2----------------2----------------------------------------|
B|-------0-----1-0--------0-----010------------------------------|

[Bridge C]
G|---------------------------------------------------------------|
D|---------------------------------------------------------------|
A|-2----6----6--7--6------6----6---7---6-------------------------|
E|--1----5----5--6--5------5----5---6-5--------------------------|
B|---0----0----0--0--0-0----0----0---0---0-0---------------------|

G|---------------------------------------------------------------|
D|---------------------------------------------------------------|
A|--6-----6--7--6----6----6--7-6----6----6--7--6-----------------|
E|-5-----5--6--5----5----5--6---5----5----5--6--5----------------|
B|---0-0---0--0--0-0--0-0--0-----0----0----0--0--0-0-------------|

G|---------------------------------------------------------------|
D|---------------------------------------------------------------|
A|-6----6--7---6-----6----6--7--6-----6---6--7--6----------------|
E|--5----5--6-5-----5----5--6--5-----5---5--6--5-----------------|
B|---0----0--0--0-0---0-0--0--0--0--0-0----0--0--0---------------|

[Bridge D rhythm]
G|---------------------------------------------------------------| 
D|---------------------------------------------------------------| 
A|(99-99-99-99-99)--------(99-99-99-99-99)-----------------------|      
E|(77-77-77-77-77)--------(77-77-77-77-77)-----------------------| x2
B|-00-00-00-00-00-[000000]-00-00-00-00-00-[000000]---------------|

[Bridge D Lead]
G|---------------------------------------------------------------| 
D|-9h10/12-9h10101010--9h10/12-1414151515------------------------| Not entirely accurate
A|---------------------------------------------------------------| x2
E|---------------------------------------------------------------|
B|---------------------------------------------------------------|

[Bridge E]
G|---------------------------------------------------------------|
D|---------------------------------------------------------------|
A|-1----1---1----------1---1-------1---1---1----1-1-0-1----------|
E|--------------1p0------------1p0-------------------------------|
B|--000--00--013---000--00--013-----000-00--000--0-0-0-000-------|

G|---------------------------------------------------------------|
D|---------------------------------------------------------------|
A|-1---1---1----1-1-0-1----1---1----------1----1-----------------|
E|----------------------------------1p0-------------1p0----------|
B|--000-00--000--0-0-0-000--00--0013---000--000--013-------------|

[Outro rhythm]
G|---------------------------------------------------------------|
D|---------------------------------------------------------------|
A|---------------------------------------------------------------| x11 until song finishes
E|---------------------------------------------------------------|
B|-0xxxx-0xxxx-0xxxx---------------------------------------------|

[Outro lead]
G|-8-7h8-7h8-8-7h8-7h8-8-7h8-7h8---------------------------------|
D|---------------------------------------------------------------|
A|---------------------------------------------------------------|
E|---------------------------------------------------------------|
B|---------------------------------------------------------------|

 

************************************

| x    Dead note
| []   Duncan's bass bass
| h    Hammer-on
| /    Slide up
| p    Pull-off 
| ()   What might be what the rhythm actually play

************************************
Suggest correction
Give kudos to tab author, rate the tab!
1 2 3 4 5
comments
print report bad tab
guest
You may want to rate the tab now too:
select rating
Wanna post a correction for this tab? Suggest correction