Oops, an error
Loading. Please wait.

Aperture tab

version 2
version 2

Whole song

Interactive

by Extol
139 views 1 this week
no commentswrite comment
1 2 3 4 5
3 more votes to show rating
add to favorites
×
Save as Personal and add changes to this tab that will be seen only by you. Learn more ›
×
You can save this tab as Personal to edit and correct it or add notes. All changes will be seen only by you. Learn more »
launch autoscroll
font size
0
reset
how to read this tab
guitar tuner
edit
Autoscroll
slow
fast
+/-
esc
set tempo
stop
  ------------------
   Extol - Aperture
  ------------------

  Tabbed by: Arnstein Aas, Norway

  All strings one whole step "down", D tuning.

  Chords (Named as is this was in standard tuning)

  The verses and instrumental choruses sound almost identical, 
  but they do have small differences. 

       Cmaj7v1      Dsus2add6           Em

 |-------0--------------0---------------0------|
 |-------0--------------0---------------0------|
 |-------0-------------11--------------12------|
 |-----(10)-------------0-------------(14)-----|
 |------10-------------12-------------(14)-----|
 |-------8-------------10---------------0------|

 

        C#m6         Cmaj7v2
   (Long finger on 
    root note)

 |-------0--------------0-------|
 |-------0--------------0-------|
 |-------9--------------0-------|
 |-------7----------------------|
 |-------x----------------------|
 |-------9--------------8-------|

  Intro (Two guitars)

 Guitar 1

 |--------0-----------0-----------0-----------0-----|
 |-----------0-----------0-----0-----0-----------0--|
 |-----7-----------7-----------------------2--------|
 |--------------------------------------0-----------|
 |--------------9-----------------------------------|
 |--0-----------------------0-----------------------|

 |--------0-----0-----0----------0-----0-----0------|
 |-----------0-----------0----------------------0---|
 |-----0--------------------7h9---------------------|
 |--------------------------------------------------|
 |--------------------------------------------------|
 |--8--------------8--------8-------8-----8---------|

 |--------0-----------0-----------0-----------0-----|
 |-----------0-----------0-----0-----0-----------0--|
 |-----7-----------7-----------------------2--------|
 |--------------------------------------0-----------|
 |--------------9-----------------------------------|
 |--0-----------------------0-----------------------|

 |--------0-----------------|
 |--------------------------|
 |-----0--------0--0--0--0--|
 |--------------5--5--5--5--|
 |--2--------3--3--3--3--3--|
 |--------------------------|

  Guitar 2

 |----7----------5----------7--------12------8-----|
 |----9---------------------8----------------------|
 |-----------------------------------11------9-----|
 |-------------------------------------------------| 
 |-------------------------------------------------|
 |-------------------------------------------------|

 |----7----------5---------7---------12---7---8----|
 |----9--------------------8-----------------------|
 |-----------------------------------11---7---9----|
 |-------------------------------------------------| 
 |-------------------------------------------------|
 |-------------------------------------------------|

   1st verse

  "Will you be there..."

  Cmaj7                   Dsus2add6

 |--0------0-----0-----0-------------0-------------0-----|
 |------------0-----------0-------------0-------------0--|
 |---------------------------11------------11------------|
 |-------------------------------------------------------| 
 |-----10------------------------12----------------------|
 |--8---------------8--------10----------------10--------|

   Em                                     Dsus2add6                               
   
 |--------0------------0------------0-------------0-----|
 |-----0-----0------------0------------0-------------0--|
 |-12-----------12-----------11h12--------11------------|
 |------------------------------------------------------|
 |--------------------------------------------12--------|
 |--0---------------0--------0------------10------------|

  Cmaj7                   Dsus2add6

 |--0---------0-----0------------------------0-----|
 |---------0-----------0----------0-------------0--|
 |------------------------11---------11------------|
 |-------------------------------------------------| 
 |-----10---------------------12-------------------|
 |--8------------8--------10-------------10--------|

   Em                                     Dsus2add6                               
   
 |--------0------------0------------0-------------0-----|
 |-----0-----0------------0------------0-------------0--|
 |-12-----------12-----------11h12--------11------------|
 |------------------------------------------------------|
 |--------------------------------------------12--------|
 |--0---------------0--------0------------10------------|


  Cmaj7                   Dsus2add6

 |--0------0-----0-----0-------------0-------------0-----|
 |------------0-----------0-------------0-------------0--|
 |---------------------------11------------11------------|
 |-------------------------------------------------------| 
 |-----10------------------------12----------------------|
 |--8---------------8--------10----------------10--------|

   Em       Dsus2add6        C#m6

 |--------0------------0-----------0-----0-----0-----|
 |-----0-----0------0-----0-----------0-----------0--|
 |-12-----------11-----------9-----------------------|
 |------------------------------7--------------------|
 |---------------------------------------------------|
 |--0-----------10-----------9--------------9--------|

   Cmaj7v2                     Dsus2add6 

 |--0-----0----------0-----0----------0---------0-----|
 |-----------0---------------------------0---------0--|
 |-----0--------7h9-----------11----------------------|
 |----------------------------------------------------| 
 |--------------------------------12------------------|
 |--8-------------------8-----10------------10--------|

   Instrumental chorus (Two guitars) 

  Guitar 1

 |--------0-----------0-----------0-----------0-----|
 |-----------0-----------0-----0-----0-----------0--|
 |-----7-----------7-----------------------2--------|
 |--------------------------------------0-----------|
 |--------------9-----------------------------------|
 |--0-----------------------0-----------------------|

 |-----------0--------0----------0-----0-----0------|
 |--------0--------0----------------------------0---|
 |-----0--------------------3h5-----------0---------|
 |--------------------------------------------------|
 |--------------------------------------------------|
 |--8-----------8--------8----------8---------------|

 |--------0-----------0-----------0-----------0-----|
 |-----------0-----------0-----0-----0-----------0--|
 |-----7-----------7-----------------------2--------|
 |--------------------------------------0-----------|
 |--------------9-----------------------------------|
 |--0-----------------------0-----------------------|

 |--------0-----------------|
 |--------------------------|
 |-----0--------0--0--0--0--|
 |--------------5--5--5--5--|
 |--2--------3--3--3--3--3--|
 |--------------------------|


  Guitar 2

 |----7----------5----------7--------12------8-----|
 |----9---------------------8----------------------|
 |-----------------------------------11------9-----|
 |---------------4---------------------------------| 
 |-------------------------------------------------|
 |-------------------------------------------------|

 |----7----------5---------7---------12---7---8----|
 |----9--------------------8-----------------------|
 |-----------------------------------11---7---9----|
 |---------------4---------------------------------| 
 |-------------------------------------------------|
 |-------------------------------------------------|

  2nd verse

  Cmaj7                   Dsus2add6

 ||--0------0-----0-----0-------------0-------------0-----|
 ||------------0-----------0-------------0-------------0--|
 ||---------------------------11------------11------------|
 ||-------------------------------------------------------| 
 ||-----10------------------------12----------------------|
 ||--8---------------8--------10----------------10--------|

   Em                                     Dsus2add6                               
   
 |--------0------------0------------0-------------0-----||
 |-----0-----0------------0------------0-------------0--||
 |-12-----------12-----------11h12--------11------------||
 |------------------------------------------------------||  x 2
 |--------------------------------------------12--------||
 |--0---------------0--------0------------10------------||

   Cmaj7                   Dsus2add6

 |--0---------0-----0----------------0-------------0-----|
 |---------0-----------0----------------0-------------0--|
 |---------------------------11------------11------------|
 |-------------------------------------------------------| 
 |-----10------------------------12----------------------|
 |--8------------8--------8--10----------------10--------|

  Em       Dsus2add6        C#m6

 |--------0------------0-----------0-----0-----0-----|
 |-----0-----0------0-----0-----------0-----------0--|
 |-12-----------11-----------9-----------------------|
 |------------------------------7--------------------|
 |---------------------------------------------------|
 |--0-----------10-----------9--------------9--------|

    Cmaj7                   Dsus2add6

 |--0-----0-----0-----0-------------0-------------0-----|
 |-----------0-----------0-------------0-------------0--|
 |-----0--------------------11------------11------------|
 |------------------------------------------------------| 
 |------------------------------12----------------------|
 |--8--------------8--------10----------------10--------|

   Instrumental chorus (Two guitars) 01:58

  Guitar 1

 |--------0-----------0-----------0-----------0-----|
 |-----------0-----------0-----0-----0-----------0--|
 |-----7-----------7-----------------------2--------|
 |--------------------------------------0-----------|
 |--------------9-----------------------------------|
 |--0-----------------------0-----------------------|

 |--------0------------0----------0-----0------0----|
 |-----------0------------0-----------------------0-|
 |-----0--------9------------7h9--------------------|
 |--------------------------------------------------| 
 |-----------------10----------------------10-------|
 |--8--------------------------------8--------------|

 |--------0-----------0-----------0-----------0-----|
 |-----------0-----------0-----0-----0-----------0--|
 |-----7-----------7-----------------------2--------|
 |--------------------------------------0-----------|
 |--------------9-----------------------------------|
 |--0-----------------------0-----------------------|

 |--------0-----------------|
 |--------------------------|
 |-----0--------0--0--0--0--|
 |--------------5--5--5--5--|
 |--2--------3--3--3--3--3--|
 |--------------------------|

  Guitar 2

 |----7----------5----------7--------12------8-----|
 |----9---------------------8----------------------|
 |-----------------------------------11------9-----|
 |---------------4---------------------------------| 
 |-------------------------------------------------|
 |-------------------------------------------------|

 |----7----------5---------7---------12---7---8----|
 |----9--------------------8-----------------------|
 |-----------------------------------11---7---9----|
 |---------------4---------------------------------| 
 |-------------------------------------------------|
 |-------------------------------------------------|

  3rd verse 

  Cmaj7                   Dsus2add6

 ||--0------0-----0-----0-------------0-------------0-----|
 ||------------0-----------0-------------0-------------0--|
 ||---------------------------11------------11------------|
 ||-------------------------------------------------------| 
 ||-----10------------------------12----------------------|
 ||--8---------------8--------10----------------10--------|

 Em                                     Dsus2add6                               
   
 |--------0------------0------------0-------------0-----||
 |-----0-----0------------0------------0-------------0--||
 |-12-----------12-----------11h12--------11------------||
 |------------------------------------------------------||  x 2
 |--------------------------------------------12--------||
 |--0---------------0--------0------------10------------||

  Cmaj7                   Dsus2add6

 |--0------0-----0-----0-------------0-------------0-----|
 |------------0-----------0-------------0-------------0--|
 |---------------------------11------------11------------|
 |-------------------------------------------------------| 
 |-----10------------------------12----------------------|
 |--8---------------8--------10----------------10--------|
 
  Em       Dsus2add6        C#m6

 |--------0------------0-----------0-----0-----0-----|
 |-----0-----0------0-----0-----------0-----------0--|
 |-12-----------11-----------9-----------------------|
 |------------------------------7--------------------|
 |---------------------------------------------------|
 |--0-----------10-----------9--------------9--------|

   02:52


    Cmaj7                   Dsus2add6

 |--0-----0-----0-----0-------------0-----|
 |-----------0-----------0-------------0--|
 |-----0--------------------11------------|
 |----------------------------------------|
 |------------------------------12--------|
 |--8--------------8--------10------------|



 |----------0------|
 |--------------0--|
 |--11-------------|
 |-----------------| x 7
 |-----------------|
 |------10---------|

   Em5

 |-----|
 |--5--|
 |--4--|
 |--2--|
 |--2--|
 |--0--|

            
            
Suggest correction
Creating personal tab
Creating personal tab
You can edit any tab online and save it as your Personal.

You can edit, replace or remove any tab part or add personal notes – all changes will be seen only by you.

Personal tabs can be accessed anytime from any device, even offline.
Learn more »
Give kudos to tab author, rate the tab!
1 2 3 4 5
comments
print report bad tab
guest
You may want to rate the tab now too:
select rating
Wanna post a correction for this tab? Suggest correction