Oops, an error
Loading. Please wait.

More Than Words Tab

version 1
4,184,603 views 4,386 this week
114 commentsread comments
1 2 3 4 5
excellent!
x 527
add to favorites
launch autoscroll
font size
0
reset
how to read this tab
guitar tuner
Autoscroll
slow
fast
+/-
esc
set tempo
stop
Help us to improve Ultimate-Guitar.com Take our survey!
×
Author
Difficulty
Tuning
intermediate
D# G# C# F# A# D#
[INTRO]

   G     G/B     Cadd9             Am7               C         Dsus4   G
e:---3-------3-----|---0-----3-0-----|---0-----3-0-----|---0---2---3-----|
B:---3-x-3---3-x-3-|---3-x---3-3-x-1-|---1-x-1-1-1-x-1-|---1-x-3---3-x-3-|
G:---0-x-0---0-x-0-|---0-x---0-0-x-0-|---0-x-0-0-0-x-0-|---0-x-2---2-x-0-|
D:-----x-------x---|-----x-------x---|-----x-------x---|-----x---0---x---|
A:-------2-------3-|-------3---3---0-|-------0-------3-|-----------------|
E:-3---------------|-----------------|-----------------|---------------3-|

         G/B     Cadd9             Am7               C         Dsus4   G
e:---3-------3-----|---0-----3-0-----|---0-----3-0-----|---0---2---3-----|
B:---3-x-3---3-x-3-|---3-x---3-3-x-1-|---1-x-1-1-1-x-1-|---1-x-3---3-x-3-|
G:---0-x-0---0-x-0-|---0-x---0-0-x-0-|---0-x-0-0-0-x-0-|---0-x-2---2-x-0-|
D:-----x-------x---|-----x-------x---|-----x-------x---|-----x---0---x---|
A:-------2-------3-|-------3---3---0-|-------0-------3-|-----------------|
E:-----------------|-----------------|-----------------|---------------3-|


[Verse]

   G     G/B     Cadd9             Am7               C         Dsus4   G
e:---3-------3-----|---0-----3-0-----|---0-----3-0-----|---0---2---3-----|
B:---3-x-3---3-x-3-|---3-x---3-3-x-1-|---1-x-1-1-1-x-1-|---1-x-3---3-x-3-|
G:---0-x-0---0-x-0-|---0-x---0-0-x-0-|---0-x-0-0-0-x-0-|---0-x-2---2-x-0-|
D:-----x-------x---|-----x-------x---|-----x-------x---|-----x---0---x---|
A:-------2-------3-|-------3---3---0-|-------0-------3-|-----------------|
E:-----------------|-----------------|-----------------|---------------3-|

         G/B     Cadd9             Am7               C         Dsus4   Em
e:---3-------3-----|---0-----3-0-----|---0-----3-0-----|---0---2---3-----|
B:---3-x-3---3-x-3-|---3-x---3-3-x-1-|---1-x-1-1-1-x-1-|---1-x-3---3-x-0-|
G:---0-x-0---0-x-0-|---0-x---0-0-x-0-|---0-x-0-0-0-x-0-|---0-x-2---2-x-0-|
D:-----x-------x---|-----x-------x---|-----x-------x---|-----x---0---x---|
A:-------2-------3-|-------3---3---0-|-------0-------3-|-----------------|
E:-----------------|-----------------|-----------------|---------------0-|

         Em/B    C                     D             G         D/F#    Em
e:---0-------0-----|---0-----3-0-----|-2-----2---2---3-|-------3---2-----|
B:---0-x-0---0-x-1-|---1-x---1-1-x---|-3---x-3---3-x-3-|---3---3---3---0-|
G:---0-x-0---0-x-0-|---0-x---0-0-x---|-2---x-2---2-x-0-|---0---2---2---0-|
D:-----x-------x---|-----x-------x---|-0---x-0---0-x---|---0-------------|
A:-------2-------3-|-------3---3-----|-----------------|-----------------|
E:-----------------|-----------------|---------------3-|---3---2---2---0-|

         C       Am7                   D             G7        G7/B    C
e:---0-------0-----|---0-----3-0-----|-2-----2---2---1-|---1-------1-----|
B:---0-x-----1-x-1-|---1-x---1-1-x---|-3---x-3---3-x-0-|---0---0---0---1-|
G:---0-x-----0-x-0-|---0-x---0-0-x---|-2---x-2---2-x-0-|---0---0---0---0-|
D:-----x-------x---|-----x-------x---|-0---x-0---0-x---|---0-------------|
A:-------3-------0-|-------0---0---0-|-----------------|-------2-------3-|
E:-----------------|-----------------|---------------3-|---3-------------|

                 Am7               G             G6  Em    G/B Em  G/B
e:---0-----3-0-----|---3-----3-0-----|---3-----3-0---3-|---3---3---3-----|
B:---1-x---1-1-x-1-|---1-x---1-1-x---|---3-x---3-3-x-3-|-x-3-x-3-x-3-x---|
G:---0-x---0-0-x-0-|---0-x---0-0-x---|---0-x---0-0-x-0-|-x-0-x-0-x-0-x---|
D:-----x-------x---|-----x-------x---|-----x-------x-2-|-x---x-2-x---x---|
A:-------3-------0-|-------0---0-----|-----------------|---2-------2-----|
E:-----------------|---------------3-|---------3-3-----|-----------------|

    C                  D
e:-^0---------------|-^2---------------|
B:-^1---------------|-^3---------------|
G:-^0---------------|-^2---------------|
D:-^2---------------|-^0---------------|
A:-^3---------------|------------------|
E:------------------|------------------|


[Chorus]

   G     G/B     G         G/B         D             C     G/B Am7     C
e:---3-------3-----|---3-------3-----|-----2---2-2-----|-----------3-----|
B:---3-x-3---3-x-3-|---3-x-3---3-x---|-3---3---3-3---1-|-x-0-x---1-1-x-1-|
G:---0-x-0---0-x-0-|---0-x-0---0-x---|-2---2---2-2---0-|-x-0-x-0-----x-0-|
D:-----x-------x---|-----x-------x---|-0-------0-0-----|-x---x-------x---|
A:-------2---------|-------2---------|---------------3-|---2---0-------3-|
E:-3-------------3-|-----------------|-----------------|-----------------|

                               G/B Am7               D         D7      G
e:---0-----0-0---0-|---0---0---3---0-|---0-----3-0---2-|---2---2---2-----|
B:---1-x---1-1-x-1-|---1-x-1-x-3-x-1-|---1-x---1-1-x-3-|-x-3-x-1-x-1-x---|
G:---0-x---0-0-x-0-|---0-x-0-x-0-x-0-|---0-x---0-0-x-2-|-x-2-x-2-x-2-x---|
D:-----x-------x---|-----x---x---x---|-----x-------x-0-|-x-0-x-0-x-0-x---|
A:---------3-3---3-|---3---3---2---0-|---0-----0-0-----|-----------------|
E:-----------------|-----------------|-----------------|---------------3-|

         G/B     G         G/B         D             C     G/B Am7     C
e:---3-------3-----|---3-------3-----|-----2---2-2-----|-----------3-----|
B:---3-x-3---3-x-3-|---3-x-3---3-x---|-3---3---3-3---1-|-x-0-x---1-1-x-1-|
G:---0-x-0---0-x-0-|---0-x-0---0-x---|-2---2---2-2---0-|-x-0-x-0-----x-0-|
D:-----x-------x---|-----x-------x---|-0-------0-0-----|-x---x-------x---|
A:-------2---------|-------2---------|---------------3-|---2---0-------3-|
E:---------------3-|-----------------|-----------------|-----------------|

                               G/B Am7                D
e:---0-----0-0---0-|---0---0---3---0-|---0-----3-0---^2-|-----------------|
B:---1-x---1-1-x-1-|---1-x-1-x-3-x-1-|---1-x---1-1-x-^3-|-----------------|
G:---0-x---0-0-x-0-|---0-x-0-x-0-x-0-|---0-x---0-0-x-^2-|-----------------|
D:-----x-------x---|-----x---x---x---|-----x-------x-^0-|-----------------|
A:---------3-3---3-|---3---3---2---0-|---0-----0-0------|-----------------|
E:-----------------|-----------------|------------------|-----------------|


*******************

x   Dead note

*******************
Suggest correction
What's this?
You can suggest a correction to this tab. Community and Mods will review your correction and vote to approve or reject it.
comments
print report bad tab
114 comments total. Showing first comments. show 2 bad comments
+9 reply
diegofrata 20 wrote on March 26 2004, 12:00 am

I believe that the tab is perfect, BUT, no the tunning, after i heard a lot, im 99,9% sure that the guitar tunning should be half-toned down. Eb, Ab, Db, Gb, Bb, Eb.

guest
You may want to rate the tab now too:
select rating
Please do not post tabs as comments. Select "correction" instead!