Oops, an error
Loading. Please wait.

Rest In Peace Tab

version 1
version 1

Whole song

Interactive

33,405 views 30 this week
5 commentsread comments
1 2 3 4 5
x 4
add to favorites
launch autoscroll
font size
0
reset
how to read this tab
guitar tuner
Autoscroll
slow
fast
+/-
esc
set tempo
stop
Help us to improve Ultimate-Guitar.com Take our survey!
×
[Intro]

e|-12-------------|---------------------------------------------|
B|--12------------|---------------------------------------------|
G|---12-----------|-----------12~~~-----------------------------|
D|----12----------|----12^14-------14-12----------------12-12---|
A|------12-----2--|-(2)------------------14^12^10-12-14-------2-|
E|-------12\\--0--|-(0)---------------------------------------0-|

e|----------------------------------------------|
B|----------------------------------------------|
G|----------12~~~~------------------------------|
D|----12^14-------14-12-------------------------|
A|-(2)------------------14^12^10-12-14-10----2--|
E|-(0)---------------------------------------0--|

e|----------------------------------------------|
B|----------------------------------------------|
G|----------12-12-------------------------------|
D|----12^14-------14-12----------------12-12----|
A|-(2)------------------14^12^10-12-14-------2--|
E|-(0)---------------------------------------0--|

e|-----------------------------------12---------|
B|-----------------------------------12---------|
G|----------12-12-------14b-12------------------|
D|----12^14-------14-12--------12-12------------|
A|-(2)------------------------------------------|
E|-(0)------------------------------------------|

e|-(12)\---------------------------------------------|
B|-(12)\---------------------------------------------|
G|------------12~~~~---------------------------------|
D|------12^14-------14-12----------------12-12-12-14-|
A|------------------------14^12^10-12-14-------------|
E|---------------------------------------------------|

(sextuplets throughout)
e|-------------------------------------------------------------------------|
B|----------------12----------14-12----12----------------------------------|
G|-12----12-14-15----15-14-12-------15----15-14-15-14-13-12----------------|
D|----14----------------------------------------------------14-12-14-12----|
A|----------------------------------------------------------------------14-|
E|-------------------------------------------------------------------------|

e|----------------------------------------------|
B|----------------------------------------------|
G|----------12-12-------------------------------|
D|----12^14-------14-12----------------12-12----|
A|-2--------------------14^12^10-12-14-------2--|
E|-0-----------------------------------------0--|

e|---------------------------------|
B|--------------------------15-----|
G|----------12-12-------14b------2-|
D|-----2^14-------14-12----------2-|
A|-(2)---------------------------0-|
E|-(0)-----------------------------|

 [Verse 1]
 (repeat 4 times)
e|-----------------------------|
B|-----------------------------|
G|-(2)-2------2-2------------2-|
D|-(2)-2------2-2----2-2-2---2-|
A|-(0)-0------0-0----0-0-0---0-|
E|-------3-3------3--3-3-3-----|
PM      - -      -  - - -

(The same rhythm)
1.,2.,3.                         
e|--------------------------------|
B|--------------------------------|
G|-(2)-2-----2-2--------------2--*|
D|-(2)-2-----2-2------4-5-6---2--*|
A|-(0)-0-----0-0------4-5-6---0---|
E|-------3-3-------3--2-3-4-------|
PM      - -       -  - - -
                       
e|---------------------------|
B|---------------------------|
G|-(2)-2-----2-2-------------|
D|-(2)-2-----2-2------4-5-6--|
A|-(0)-0-----0-0------4-5-6--|
E|-------3-3-------3--2-3-4--|
PM      - -       -  - -

[Pre-Chorus 1]
e|-----------------------|---------------------|
B|--5----5-----------5---|---------(5)---------|
G|--6----6-----------6---|---------(6)----x-x--|
D|--7----7---6--6----6---|---------(6)----x-x--|
A|-----------6--6----4---|---------(4)----x-x--|
E|----5----5-4--4--------|---------------------|
PM   -    - -  -

e|----------------------|-----------------------|---------------------|
B|-5----5-----------5---|-(5)-5-----------------|-5----5-----------5--|
G|-6----6-----------6---|-(6)-6-------------x-x-|-6----6-----------6--|
D|-7----7---6--6----6---|-(6)-6----------2--x-x-|-7----7---6--6----6--|
A|----------6--6----4---|-(4)-4----------2--x-x-|----------6--6----4--|
E|---5----5-4--4--------|----------------0------|---5----5-4--4-------|
PM  -    - -  -                                    -  
 - -  -

e|--------------------------|----------------------|--------------------------|
B|-(5)-5----------------5---|-(5)--5-5-5-5-5---5---|-(5)-5--4--5-4-5-4-5----6-|
G|-(6)-6-----4--4--x-x--0---|-(0)--------------0---|-(0)--------------------0-|
D|-(6)-------5--5--x-x--4---|-(4)--4-4-4-4-4---4---|-(4)-4--3--4-3-4-3-4----5-|
A|-(4)-------2-----x-x--4---|-(4)--4-4-4-4-4---4---|-(4)-4--3--4-3-4-3-4----5-|
E|----------------------2---|-(2)--2-2-2-2-2-------|------------------------3-|

e|----------------------|---------------------------|
B|-(6)--5-5-5-5-5---5---|-(5)-5--4--5-4-5-4-5----6--|
G|-(0)--------------0---|-(0)--------------------0--|
D|-(5)--4-4-4-4-4---4---|-(4)-4--3--4-3-4-3-4----5--|
A|-(5)--4-4-4-4-4---4---|-(4)-4--3--4-3-4-3-4----5--|
E|-(3)--2-2-2-2-2-------|------------------------3--|

e|----------------------|----------------------------|
B|-(6)--5-5-5-5-5---5---|-(5)-------------------5--5-|
G|-(0)--------------0---|-(0)-------------------2--4-|
D|-(5)--4-4-4-4-4---4---|-(4)-4---4---4--4------2--2-|
A|-(5)--4-4-4-4-4---4---|-(4)-4---4---4--4------0----|
E|-(3)--2-2-2-2-2-------|-----2---2---2--2-----------|

[Chorus 1]
e|--------------------------|------------------------|
B|-(5)----5-----5--5-----2--|-(2)--5--2-----2-2----3-|
G|-(4)----4-----4--4-----2--|-(2)-----2-----2-2----4-|
D|-(2)-2--2--2--2--2--2--2--|-(2)-----2--2--2-2--2-2-|
A|--------------------------|------------------------|
E|--------------------------|------------------------|
PM    -     -        -             -     -       -

e|-------------------------|-------------------------|
B|-(3)----3-----2-3~----3~-|-(3)----3-----2-3-----5--|
G|-(4)----4-----3-4~----4~-|-(4)----4-----3-4-----4--|
D|-(2)-2--2--2--1-2~-2--2~-|-(2)-2--2--2--1-2--2--2--|
A|-------------------------|-------------------------|
E|-------------------------|-------------------------|
PM    -     -       -           -     -       -

e|-------------------------|--------------------------|
B|-(5)----5-----5--5----<2>~~(2)-----2-----2-2-----3--|
G|-(4)----4-----4--4-------|---------2-----2-2-----4--|
D|-(2)-2--2--2--2--2--2----|------2--2--2--2-2--2--2--|
A|-------------------------|--------------------------|
E|-------------------------|--------------------------|
PM    -     -        -           -     -       -

e|---------------10-------10b-|-(10)-------10~~------|----------3--|
B|-(3)----3----------9--------|--------9---------2---|-(2)------3--|
G|-(4)----4---/9-------9------|----------9-------2---|-(2)------4--|
D|-(2)-2--2-------------------|------------------2---|-(2)------5--|
A|----------------------------|------------------0---|-(0)------5--|
E|----------------------------|---------------X\-----|----------3--|

e|-(3)----------|----------------|-5------------|
B|-(3)-------7--|-(7)------------|-7------------|
G|-(4)-------7--|-(7)------------|-7------------|
D|-(5)-------7--|-(7)------------|-7------------|
A|-(5)-------5--|-(5)------------|--------------|
E|-(3)----------|----------------|--------------|
PM                                -

[Verse 2]
(repeat 4 times, i'ts the same as verse 1)

e|-----------------------------|
B|-----------------------------|
G|-(2)-2------2-2------------2-|
D|-(2)-2------2-2----2-2-2---2-|
A|-(0)-0------0-0----0-0-0---0-|
E|-------3-3------3--3-3-3-----|
PM      - -      -  - - -

(The same rhythm)
 1.,2.,3.                         
e|--------------------------------|
B|--------------------------------|
G|-(2)-2-----2-2--------------2--*|
D|-(2)-2-----2-2------4-5-6---2--*|
A|-(0)-0-----0-0------4-5-6---0---|
E|-------3-3-------3--2-3-4-------|
PM      - -       -  - - -

e|---------------------------|
B|---------------------------|
G|-(2)-2-----2-2-------------|
D|-(2)-2-----2-2------4-5-6--|
A|-(0)-0-----0-0------4-5-6--|
E|-------3-3-------3--2-3-4--|
PM      - -       -  - -

[Pre-Chorus 2]
e|-----------------------|---------------------|
B|--5----------------5---|---------(5)---------|
G|--6----------------6---|---------(6)----x-x--|
D|--7--------6--6----6---|---------(6)----x-x--|
A|--7--------6--6----4---|---------(4)----x-x--|
E|--5--------4--4--------|---------------------|
PM          -  -
 
e|----------------------|-----------------------|---------------------|
B|-5----5-----------5---|-(5)-5-----------------|-5----5-----------5--|
G|-6----6-----------6---|-(6)-6-------------x-x-|-6----6-----------6--|
D|-7----7---6--6----6---|-(6)-6----------2--x-x-|-7----7---6--6----6--|
A|----------6--6----4---|-(4)-4----------2--x-x-|----------6--6----4--|
E|---5----5-4--4--------|----------------0------|---5----5-4--4-------|
PM  -    - -  -                                    -  
 - -  -

e|--------------------------|----------------------|--------------------------|
B|-(5)-5----------------5---|-(5)--5-5-5-5-5---5---|-(5)-5--4--5-4-5-4-5----6-|
G|-(6)-6-----4--4--x-x--0---|-(0)--------------0---|-(0)--------------------0-|
D|-(6)-------5--5--x-x--4---|-(4)--4-4-4-4-4---4---|-(4)-4--3--4-3-4-3-4----5-|
A|-(4)-------2-----x-x--4---|-(4)--4-4-4-4-4---4---|-(4)-4--3--4-3-4-3-4----5-|
E|----------------------2---|-(2)--2-2-2-2-2-------|------------------------3-|

e|----------------------|-----------------------------------|
B|-(6)--5-5-5-5-5---5---|-(5)-5--4--5-4-5-X-X-X-5-X-X-X--6--|
G|-(0)--------------0---|-(0)----------------------------0--|
D|-(5)--4-4-4-4-4---4---|-(4)-4--3--4-3-4-X-X-X-4-X-X-X--5--|
A|-(5)--4-4-4-4-4---4---|-(4)-4--3--4-3-4-X-X-X-4-X-X-X--5--|
E|-(3)--2-2-2-2-2-------|--------------------------------3--|

e|----------------------|----------------------------|
B|-(6)--5-5-5-5-5---5---|-(5)-------------------5--5-|
G|-(0)--------------0---|-(0)-------------------2--4-|
D|-(5)--4-4-4-4-4---4---|-(4)-4---4---4--4------2--2-|
A|-(5)--4-4-4-4-4---4---|-(4)-4---4---4--4------0----|
E|-(3)--2-2-2-2-2-------|-----2---2---2--2-----------|

[Chorus 2]
e|--------------------------|----------------------|
B|-(5)----5-----5--5-----2--|-(2)-----2-----2-2----|
G|-(4)----4-----4--4-----2--|-(2)-----2-----2-2----|
D|-(2)-2--2--2--2--2--2--2--|-(2)--2--2--2--2-2--2-|
A|--------------------------|----------------------|
E|--------------------------|----------------------|
PM    -     -        -            -     -       -

e|-------------------------|----------------------------|
B|-(3)----3-----2-3--------|-------------------------5--|
G|-(4)----4-----3-4--------|-------------<7>--<7>~~--4--|
D|-(2)-2--2--2--1-2--------|-<6>---------------------2--|
A|---------------------/7--|-----7----------------------|
E|-------------------------|--------12\0----------------|
PM    -     -

e|---------------------------|--------------------------|
B|-(5)------5-----5--5----<2>|-(2)~~~~~~~~~~---------3--|
G|-(4)------4-----4--4----<2>|-(2)~~~~~~~~~~---------4--|
D|-(2)-2-2--2--2--2--2--2----|-----------------------2--|
A|---------------------------|--------------------------|
E|---------------------------|--------------------------|
PM    - -     -        -

e|---------------10-------10b-|-(10)-------10~~------|----------3--|
B|-(3)----3----------9--------|--------9---------2---|-(2)------3--|
G|-(4)----4---/9-------9------|----------9-------2---|-(2)------4--|
D|-(2)-2--2-------------------|------------------2---|-(2)------5--|
A|----------------------------|------------------0---|-(0)------5--|
E|----------------------------|---------------X\-----|----------3--|

e|-(3)----------|-----------------------|----------------------------------|
B|-(3)----------|--7--------------------|-------------7-----------------15-|
G|-(4)----------|--7--------------------|-7--7--7--7--7-----------14-16----|
D|-(5)----------|--7--7--7-7--7-7--7-7--|-7--7--7--7--7-----14^16----------|
A|-(5)----------|--5--5--5-5--5-5--5-5--|-5--5--5--5--5--------------------|
E|-(3)----------|-----------------------|----------------------------------|
PM                   -  - -  - -  - -    -  -  -  -   

[Solo]
e|---------------------------|------------------------------------|
B|-<14>-14-------------------|---------------------------------15-|
G|---------14-----14-16-b--b-|-(16b)-r-^14-<16b>----------14-16---|
D|---------------------------|------------------/12-14-16---------|
A|---------------------------|------------------------------------|
E|---------------------------|------------------------------------|

e|---------------------------------|-------9---------------------------|
B|--14~-14-14/17-----17\9-10--b--b-|-(10)----10-----------------12-15--|
G|---------------------------------|----------------------13-14--------|
D|---------------------------------|---------------/14-16--------------|
A|---------------------------------|-----------------------------------|
E|---------------------------------|-----------------------------------|
PM                                                 --
-- -- --

e|-14----14^10-------15-15^10--------14-14^10-------15-15^10-------|
B|-------------13-10----------13-10-----------13-10----------13-10-|
G|-----------------------------------------------------------------|
D|-----------------------------------------------------------------|
A|-----------------------------------------------------------------|
E|-----------------------------------------------------------------|

(sextuplets throughout)
(with no rest!)
e|-13^10-------------------------------------------------------------------|
B|-------13-10^11----10^11----10^11-13-10-------------------------------10-|
G|----------------14-------14-------------12-10-10-------------10-10-12----|
D|-------------------------------------------------12-10-10-12-------------|
A|-------------------------------------------------------------------------|
E|-------------------------------------------------------------------------|
PM                                       -- -- -- -- -- -- -- -- -- -- --

e|---------------------|-----------------------------------12-13-|
B|-13~\--------13-12---|-(12b)--r-^10--12\--------12-13-15-------|
G|----------10---------|-------------------/12^14----------------|
D|------/12------------|-----------------------------------------|
A|---------------------|-----------------------------------------|
E|---------------------|-----------------------------------------|

e|--15~~~~~~~~~~-<15b>-|-(15)-r---13-12b-r------13-15-12-|
B|---------------------|---------------------------------|
G|---------------------|---------------------------------|
D|---------------------|---------------------------------|
A|---------------------|---------------------------------|
E|---------------------|---------------------------------|

e|-(12b)-12------------------------|--------------------------------------|
B|----------13\--------13-15-15----|-(15b)-r-^13--------------------------|
G|-----------------/14-------------|-------------<13>----15--14^15^13--12~|
D|---------------------------------|--------------------------------------|
A|---------------------------------|--------------------------------------|
E|---------------------------------|--------------------------------------|

e|-------------------12-13-15--b--|-(15)--15--13-13\12-13-15--12-|
B|-------15b---13^15--------------|------------------------------|
G|-(12)---------------------------|------------------------------|
D|--------------------------------|------------------------------|
A|--------------------------------|------------------------------|
E|--------------------------------|------------------------------|

e|-(12b)--12-------------------|
B|-----------13----------------|
G|---------------14--14--14\---|
D|---------------16--16--16\---|
A|---------------------------2-|
E|---------------------------0-|

[Solo] 
(Gtr 2)
e|--------------------|--------------------|--------------------|
B|--------------------|--------------------|--------------------|
G|--------------------|--------------------|--------------------|
D|--------------------|--------------------|--------------------|
A|-0-0--0-0--0-0--0-0-|-0-0--0-0--0-0--8-8-|-7-7-0-0--0-0--0-0--|
E|--------------------|--------------------|--------------------|
PM- -  - -  - -  - -   - -  - -  - -            - -  - -  - -

e|-------------------|---------------------|------------------------|
B|-------------------|---------------------|------------------------|
G|-------------------|---------------------|------------------------|
D|-------------------|---------------------|------------------------|
A|-0-0--0-0--0-0-8-8-|-5-x--5-x--5-x--5-8--|-8--x---8--x-8--8-8--5--|
E|-------------------|---------------------|---------------------3--|
PM- -  - -  - -       -    -    -    - -    -      -  -  - -

e|----------------------------|--------------------------|
B|----------------------------|--------------------------|
G|----------------------------|--------------------------|
D|----------------------------|----------------------5---|
A|-(5)--5--5--5--5--5--5--5---|-5--5--5--5-----0--2--3---|
E|-(3)--3--3--3--3--3--3--3---|-3--3--3--3--3------------|
PM     -  -  -  -  -  -  -     -  -  -  -

(Play the same Rhythm)
e|--------------------------|------------------------|
B|--------------------------|------------------------|
G|--------------------------|------------------------|
D|-------5-----5--------3---|-------3-----3----------|
A|-3--3--3--3--3--3--3--1---|-1--1--1--1--1--1--1--3-|
E|--------------------------|----------------------1-|
PM-  -     -     -  -        -  -     -     -  -

e|-------------------------|-------------------------|
B|-------------------------|-------------------------|
G|-------------------------|-------------------------|
D|----------------------3--|-------3-----3--------5--|
A|-------3-----3--------1--|-1--1--1--1--1--1--1--3--|
E|-1--1--1--1--1--1--1-----|-------------------------|
PM-  -     -     -  -       -  -     -     -  -

e|--------------------------|-------------------------|
B|--------------------------|-------------------------|
G|--------------------------|-------------------------|
D|-------5-----5--------3---|--------3-----3----------|
A|-3--3--3--3--3--3--3--1---|--1--1--1--1--1--1--1--3-|
E|--------------------------|-----------------------1-|
PM-  -     -     -  -         -  -     -     -  -

e|--------------------------|
B|--------------------------|
G|--------------------------|
D|--------------------------|
A|-------3------------------|
E|-1--1--1--1--/X\----------|
PM-  -     -

[Instrumental]
e|---------------------------------------------|
B|---------------------------------------------|
G|-----------12~~~-----------------------------|
D|----12^14-------14-12----------------12-12---|
A|-(2)------------------14^12^10-12-14-------2-|
E|-(0)---------------------------------------0-|

e|----------------------------------------------|
B|----------------------------------------------|
G|----------12~~~~------------------------------|
D|----12^14-------14-12-------------------------|
A|-(2)------------------14^12^10-12-14-10----2--|
E|-(0)---------------------------------------0--|

e|----------------------------------------------|
B|----------------------------------------------|
G|----------12~~~~------------------------------|
D|----12^14-------14-12----------------12-12----|
A|-(2)------------------14^12^10-12-14-------2--|
E|-(0)---------------------------------------0--|

e|-----------------------------------12---------|
B|-----------------------------------12---------|
G|----------12-12-------14b-12------------------|
D|----12^14-------14-12--------12-12------------|
A|-(2)------------------------------------------|
E|-(0)------------------------------------------|

e|---------------------------------------------|
B|---------------------------------------------|
G|-----------12~~~-----------------------------|
D|----12^14-------14-12----------------12-12---|
A|-(2)------------------14^12^10-12-14-------2-|
E|-(0)---------------------------------------0-|

e|----------------------------------------------|
B|----------------------------------------------|
G|----------12~~~~------------------------------|
D|----12^14-------14-12-------------------------|
A|-(2)------------------14^12^10-12-14-10----2--|
E|-(0)---------------------------------------0--|

e|----------------------------------------------|
B|----------------------------------------------|
G|----------------------------------------------|
D|-12^14~--12-------12--------------------------|
A|------------12^14----10-10--10^12^10----------|
E|--------------------------------------12------|

e|-----------------------------|
B|-----------------------------|
G|---------------------12^14---|
D|-12^14~--12-------12-12^14---|
A|------------12^14------------|
E|-----------------------------|

e|------------------------|----------------|--------------------------|
B|--------------------5---|-(5)------------|-5--------5------------14-|
G|----9\-------7------2---|-(2)------------|----7--------7------------|
D|----9\-------7------2---|-(2)-----x-x--6-|-------6--------6---------|
A|----7\-------5------0---|-(0)-----x-x----|--------------------------|
E|------------------------|---------x-x----|--------------------------|

e|---------------------------------------|
B|-(14b)-14-12-------------------------5-|
G|-------------13----------------------4-|
D|-----------------14-12---------------2-|
A|-----------------------14-12-<11>------|
E|---------------------------------/X\---|

e|---------------------------|--------------------------|
B|-(5)------5-----5--5----<2>|-(2)~~~~~~~~~~---------3--|
G|-(4)------4-----4--4----<2>|-(2)~~~~~~~~~~---------4--|
D|-(2)-2-2--2--2--2--2--2----|-----------------------2--|
A|---------------------------|--------------------------|
E|---------------------------|---------------/X\--------|
PM    - -     -        -

e|------------------------------------------|---15b----------17b----17b---|
B|-(3)---3-----14b-----------15b-15^12------|-------17^15---------------5-|
G|-(4)---4---------16^14---------------14---|-------------16-----------\2-|
D|-(2)-2-2---------------17-----------------|--------------------------\2-|
A|------------------------------------------|--------------------------\0-|
E|------------------------------------------|-----------------------------|

e|---------------------------|---------7----------------|
B|-(5)----------/15--14~~----|------/5---5-----5H-------|
G|-(2)-----------------------|-------------------5H-----|
D|-(2)--------------------5--|-(5)-----------------5H-4-|
A|-(0)--------------------5--|-(5)--------------------4-|
E|------------------------3--|-(3)--------------------2-|

e|--------------------|-----------------|------------------------------|
B|--------------------|-----------------|------------------5-----------|
G|--------------------|-----------------|--------------/4----2b--4^2^0-|
D|------4----4-4------|-----------------|--------9---------------------|
A|------4----4-4------|---------4-5-6-7-|-(7)\/7----7------------------|
E|-2--2-2--2-2-2-/X\--|-2-3-4-5---------|------------------------------|
PM-  -    -     - -

e|------------------------|---------------4\----7\-----|
B|------------------------|----------------------------|
G|-2~~~~--2b-----r^0------|--------7\-/4-----/7---/13--|
D|-------------------2/\--|-----/6---------------------|
A|------------------------|----------------------------|
E|----------------------0-|-(0)------------------------|

e|-16---16~-16~-16~-16~\----|
B|-15---15~-15~-15~-15~\--5-|
G|------------------------4-|
D|------------------------2-|
A|--------------------------|
E|--------------------------|

e|---------------------------|--------------------------|
B|-(5)------5-----5--5----<2>|-(2)~~~~~~~~~~---------3--|
G|-(4)------4-----4--4----<2>|-(2)~~~~~~~~~~---------4--|
D|-(2)-2-2--2--2--2--2--2----|-----------------------2--|
A|---------------------------|--------------------------|
E|---------------------------|---------------/X\--------|
PM    - -     -        -

e|------------------------------------------|
B|--(3)-----3-14b---r^12--------------------|
G|--(4)-----4-------------13----------------|
D|--(2)--2--2----------------14-12----------|
A|---------------------------------14-13-12-|
E|------------------------------------------|
PM      -

e|--------------------------------|-----------------3---|
B|-----------------------------2--|-(2)-------------3---|
G|-----------------------------2--|-(2)-------------4---|
D|-----------------------------2--|-(2)-------------5---|
A|-<11>\-----------------------0--|-(0)-------------5---|
E|-------0------------------------|-----------------3---|

e|-(3)----------|----------------|
B|-(3)-------7--|-(7)------------|
G|-(4)-------7--|-(7)------------|
D|-(5)-------7--|-(7)------------|
A|-(5)-------5--|-(5)------------|
E|-(3)----------|----------------|

e|-12-------------|-----------------------------|
B|--12------------|---------------vibrato-------|
G|---12-----------|---------------12~~~---------|
D|----12----------|-------12^14-------14-12-----|
A|------12-----2--|-(2)-------------------------|
E|-------12\\--0--|-(0)-------------------------|
   
e|---------------------------------------|
B|---------------------------------------|
G|---------<12>-12-------14b-12----------|
D|----12^14--------14-12--------12-12----|
A|-(2)-----------------------------------|
E|-(0)-----------------------------------|

(slide with a ghost note)
e|-(12)\------|
B|-(12)\------|
G|------------|
D|------------|
A|------------|
E|------------|

The Palm Mutes are
indicated below                 muffled
the tablature                   strings
e|-----------------------|------------|
B|--5----5-----------5---|-(5)--------|
G|--6----6-----------6---|-(6)----x-x-|
D|--7----7---6--6----6---|-(6)----x-x-|
A|-----------6--6----4---|-(4)----x-x-|
E|----5----5-4--4--------|------------|
PM   -    - -  - 

             slide up         slide down
E|-(4)----4---/9---------------9\-----|
A|-(2)-2--2---------------------------|
G|------------------------------------|
D|-----------------------X\-----------|
                        slide down
                        from the X fret

(Play the bend whole tone and then
a release and a ligature to 14)
         1          1
e|-----16b-r-^14-<16b>--------|
B|----------------------------|
G|----------------------------|                          
D|------14-12---------------2-|
A|------------14-12-<11>------|
E|----------------------/X\---|


************************************

| ~    Vibrato
| (n)  Ghost note
| \    Slide down
| b    Bend
| PM   Palm mute
| *    Natural harmonic
| x    Dead note
| /    Slide up
| r    Release

************************************
Suggest correction
comments
print report bad tab
5 comments total. Showing first comments.
-1 reply
Johnljones7443 70 Nov 20, 2005 10:20 AM

Your solo is disgraceful.

+1 reply
WILL334 10 Jul 10, 2006 12:56 PM

this is great man!

+1 reply
daddyo1911 10 Sep 19, 2014 03:57 PM

Needs some work but great effort,use your ear.Practice your scales and you'll see the patterns Nuno uses.Don't listen to idiots like johnljones7443.We all see he gave it a go,don't we?He probably sucks hard like a Hoover.

guest
You may want to rate the tab now too:
select rating
Wanna post a correction for this tab? Suggest correction