Oops, an error
Loading. Please wait.

So Payaso tab

version 2
version 2

Whole song

Interactive

1,185 views 6 this week
no commentswrite comment
1 2 3 4 5
2 more votes to show rating
add to favorites
×
Save as Personal and add changes to this tab that will be seen only by you. Learn more ›
×
You can save this tab as Personal to edit and correct it or add notes. All changes will be seen only by you. Learn more »
launch autoscroll
font size
0
reset
how to read this tab
guitar tuner
backing track
0:00
0:00
edit
Autoscroll
slow
fast
+/-
esc
set tempo
stop
Author
Difficulty
"So payaso"
Extremoduro

INTRO
                                                                              
E -----------------------------------------------------------|
B -----------------------------------------------------------|
G -----------------------------------------------------------|
D -----5--5--4---------4--5------5--5--4-----------4---5-----|
A -----7--7--5---5--7------------7--7--5--5--5--5------------|
E --0-------------------------0------------------------------|
                              
                              RIFF 1  Em7        Bm7   C
E --------------------------|--------------------------------|
B --------------------------|----------8----------7----8-----|
G ------0--------0------0---|----------7----------7----9-----|
D ----2--------2------2-----|----------9----------7----10----|
A --3--------2------4-------|----------7----------9----10----|
E ---------0----------------|----------0----------7----8-----|
    
  RIFF 2      C           E   (repetir)    C#dim
E -----------------------------------------------------------|
B -----------------------------------------------------------|
G -----------5-5-5-5-----------------------0-0-0-------------|
D -----------5-5-5-5-----2-2-2-2-----------2-2-2-------------|
A -----------3-3-3-3-----2-2-2-2-----------4-4-4-------------|
E -----------------------0-0-0-0-----------------------------|

  RIFF 3
E -------------------------------|
B -------------------------------|
G ---5--5--5--5----0--0--0--0----|
D ---5--5--5--5----2--2--2--2----|
A ---3--3--x--x----2--2--2--2----|
E ---0--0--2--3----0--0--2--3----|


  RIFF 4 (versión alternativa)
E -------------------------------|
B -------------------------------|
G -------------------------------|
D ---2--2--3--5----2--2--3--5----|
A ---3--3--3--3----2--2--2--2----|
E ---0--0----------0--0----------|


Riff 1
      Puede que me deje llevar,
Riff 1
      puede que levante la voz
Riff 1
      y puede que me arranque sin más,
Riff 1                    C
      ver que me dice después
 
Riff 1
      Quiero ser tu perro fiel,
Riff 1
      tu esclavo sin rechistar
Riff 1
      que luego me desato y verás,
Riff 1                    Riff 2
      ver que me dice después
                                          
      So payaso, me tiemblan los pies a su lado.
                                
      me dice que estoy descolorio,
                        
      la empiezo a besar...
             fin Riff 2  Riff 3         
      ver que me dice depués
               
      So cretino, me tiemblan los pies a su la-do,

      me dice que estoy desconocio,
                         
      me empiezo a pensar...
                       fin Riff 3         
      ver que me dice después

INTRO (MAS RAPIDA)
       
Riff 1
      Acércate y ya veras
Riff 1
      que no se como hacerlo peor,
Riff 1
      despacito pero mu mal,
Riff 1                     
      ver que me dice después

Riff 1
      Hago casas de carton,
Riff 1
      ayer bebí hasta jurar
Riff 1
      pero hoy no me levanta ni dios,
Riff 1                   Riff 1
      ver que me dice después
              
      So payaso...

            
            
Suggest correction
Creating personal tab
Creating personal tab
You can edit any tab online and save it as your Personal.

You can edit, replace or remove any tab part or add personal notes – all changes will be seen only by you.

Personal tabs can be accessed anytime from any device, even offline.
Learn more »
Give kudos to tab author, rate the tab!
1 2 3 4 5
comments
print report bad tab
guest
You may want to rate the tab now too:
select rating
Wanna post a correction for this tab? Suggest correction