Oops, an error
Loading. Please wait.

Possessed By Fire Tab

version 1
version 1

Whole song

Interactive

4,958 views 3 this week
1 commentread comment
1 2 3 4 5
please rate
add to favorites
launch autoscroll
font size
0
reset
how to read this tab
guitar tuner
Tab Pro tools
  • play this tab
  • loop segment
  • change instrument
  • show fretboard
  • metronome
×
Best way to learn
"Possessed By Fire"
Autoscroll
slow
fast
+/-
esc
set tempo
stop
Contributor
-------------------------------------------------------------------------------
                           Possessed By Fire - Exumer
-------------------------------------------------------------------------------
Tabbed by:Beef McStud 
Email:Mr.Jingles92@yahoo.com
Album: Possessed By Fire
Official Band Website:http://exumer1985.com/
Band Myspace:http://www.myspace.com/exumerwakingthefire

This is my first tab. Sorry for any mistakes.
Any criticism is welcome. THRASH "TILL DEATH!!

(Listen To Song For Rhythm) 

Tuning:EADGBE

Intro:
1st Minute is just that Vocal Stuff Then

x1
e|----------------------|
B|----------------------|
G|----------------------|
D|----------------------|
A|---7-6-5-7-6-5-10-9~--|
E|---5-4-3-5-4-3-8--7~--|

x4 (Hold for a Sec on the 4th one)
e|---------------------------------------|
B|---------------------------------------|
G|---------------------------------------|
D|---------------------------------------|
A|--------------------------------7-6-9~-|
E|--0-0-0-0-0-0-0-0-0-0-0-0-0-0-0-5-4-7~-|
    .............................

x4
e|---------------------------------------|
B|---------------------------------------|
G|---------------------------------------|
D|---------------------------------------|
A|--------------------------------7-6-9--|
E|--0-0-0-0-0-0-0-0-0-0-0-0-0-0-0-5-4-7--|
    .............................

x2
e|---------------------------------------|
B|---------------------------------------|
G|---------------------------------------|
D|---------------------------------------|
A|--------------------------------7-6-9--|
E|--5-5-5-5-5-5-5-5-5-5-5-5-5-5-5-5-4-7--|
    .............................

x2 (Hold for a Sec On The 2nd One)
e|---------------------------------------|
B|---------------------------------------|
G|---------------------------------------|
D|---------------------------------------|
A|--------------------------------7-6-9--|
E|--0-0-0-0-0-0-0-0-0-0-0-0-0-0-0-5-4-7--|
    .............................

x4
e|---------------------------------------|
B|---------------------------------------|
G|---------------------------------------|
D|---------------------------------------|
A|--------------------------------7-6-9--|
E|--0-0-0-0-0-0-0-0-0-0-0-0-0-0-0-5-4-7--|
    .............................

x2
e|---------------------------------------|
B|---------------------------------------|
G|---------------------------------------|
D|---------------------------------------|
A|--------------------------------7-6-9--|
E|--5-5-5-5-5-5-5-5-5-5-5-5-5-5-5-5-4-7--|
    .............................

x2 (Hold for a Sec On The 2nd One)
e|---------------------------------------|
B|---------------------------------------|
G|---------------------------------------|
D|---------------------------------------|
A|--------------------------------7-6-9--|
E|--0-0-0-0-0-0-0-0-0-0-0-0-0-0-0-5-4-7--|
    .............................



x1 
e|----------------------------|
B|----------------------------|
G|----------------------------|
D|----------------------------|
A|------7-----6-----7-----12~-|
E|--0-0---0-0---0-0---0-0-----|
    . .   . .   . .   . .

x4
e|-------------------------------------------|
B|-------------------------------------------|
G|-------------------------------------------|
D|---------------------------------7-6-10-9--|
A|---------------------------------5-4-8--7--|
E|--0-0-0-0-0-0-0-0-0-0-0-0-0-0-0------------|
    .............................

x2
e|-----------------------------------|
B|-----------------------------------|
G|-----------------------------------|
D|--7--5~----------------------7-5~--|
A|--5--3~----------------------5-3~--|
E|------0-0-0-0-0-0-0-0-0-0-0--------|
        .....................

Listen To The Song For This Part. The Rhythm Is Kinda Tricky.
e|--------------------------------------|
B|--------------------------------------|
G|--------------------------------------|
D|--------------------------------------|
A|-2-2-2-2-2-2-2-2-2-2-2-2-2-2-2-2-2-2--|
E|-0-0-0-0-0-0-0-0-0-0-0-0-0-0-0-0-0-0--|
   .................................. 

Chords In Between Solo
(About 6 Times)
e|----------|
B|----------|
G|----------|
D|----------|
A|--7~--5~--|
E|--5~--3~--|

x1
e|--------------------------------------|
B|--------------------------------------|
G|--------------------------------------|
D|--------------------------------------|
A|--------------------------------------|
E|-0-0-0-0-0-0-0-0-0-0-0-0-0-0-0-0-0-0--|
   .................................. 

x4
e|---------------------------------------|
B|---------------------------------------|
G|---------------------------------------|
D|---------------------------------------|
A|--------------------------------7-6-9--|
E|--0-0-0-0-0-0-0-0-0-0-0-0-0-0-0-5-4-7--|
    .............................

x2
e|---------------------------------------|
B|---------------------------------------|
G|---------------------------------------|
D|---------------------------------------|
A|--------------------------------7-6-9--|
E|--5-5-5-5-5-5-5-5-5-5-5-5-5-5-5-5-4-7--|
    .............................

x2 (Hold for a Sec On The 2nd One)
e|---------------------------------------|
B|---------------------------------------|
G|---------------------------------------|
D|---------------------------------------|
A|--------------------------------7-6-9--|
E|--0-0-0-0-0-0-0-0-0-0-0-0-0-0-0-5-4-7--|
    .............................

x4
e|---------------------------------------|
B|---------------------------------------|
G|---------------------------------------|
D|---------------------------------------|
A|--------------------------------7-6-9--|
E|--0-0-0-0-0-0-0-0-0-0-0-0-0-0-0-5-4-7--|
    .............................


x2
e|---------------------------------------|
B|---------------------------------------|
G|---------------------------------------|
D|---------------------------------------|
A|--------------------------------7-6-9--|
E|--5-5-5-5-5-5-5-5-5-5-5-5-5-5-5-5-4-7--|
    .............................

x2 (Hold for a Sec On The 2nd One)
e|---------------------------------------|
B|---------------------------------------|
G|---------------------------------------|
D|---------------------------------------|
A|--------------------------------7-6-9--|
E|--0-0-0-0-0-0-0-0-0-0-0-0-0-0-0-5-4-7--|
    .............................

x1 
e|----------------------------|
B|----------------------------|
G|----------------------------|
D|----------------------------|
A|------7-----6-----7-----12~-|
E|--0-0---0-0---0-0---0-0-----|
    . .   . .   . .   . .

x4
e|-------------------------------------------|
B|-------------------------------------------|
G|-------------------------------------------|
D|---------------------------------7-6-10-9--|
A|---------------------------------5-4-8--7--|
E|--0-0-0-0-0-0-0-0-0-0-0-0-0-0-0------------|
    .............................

x1(I'm Not 100% Sure About this Part. Sorry For Any Mistakes)

D|--9-8-7-8-7-6-7-6-5~--|
A|--7-6-5-6-5-4-5-4-3~--|


x6
e|----------------------------------------------|
B|----------------------------------------------|
G|----------------------------------------------|
D|---------------------------------7--6--10--9--|
A|---------------------------------5--4--8---7--|
E|--0-0-0-0-0-0-0-0-0-0-0-0-0-0-0---------------|
    .............................

x1(I'm Not 100% Sure About this Part. Sorry For Any Mistakes)

D|--9-8-7-8-7-6-7-6-5~--|
A|--7-6-5-6-5-4-5-4-3~--|

Thats It.
One Of The Greatest Songs Ever Made.
Will Be Tabbing Other Exumer Songs For You Metal Heads Out There.
Hopefully I'll Figure Out The Solo's In The Future.



| /  slide up
| \  slide down
| h  hammer-on
| p  pull-off
| ~  vibrato
| +  harmonic
| x  Mute note
===============================================================================
comments
We did not receive enough feedback on this tab! Please rate:
print report bad tab
1 2 3 4 5
1 comment total.
0 reply
mattman2013 wrote on June 25 2009, 02:37 pm

great tab man, i love EXUMER, there are a few mistakes but thats ok, 5 stars, awesome.

I want to post or [tab]
guest
You may want to rate the tab now too:
select rating
Please do not post tabs as comments. Select "correction" instead!