Oops, an error
Loading. Please wait.

Alaska bass

270 views 1 this week
1 commentread comment
1 2 3 4 5
3 more votes to show rating
add to favorites
×
Save as Personal and add changes to this tab that will be seen only by you. Learn more ›
×
You can save this tab as Personal to edit and correct it or add notes. All changes will be seen only by you. Learn more »
launch autoscroll
font size
0
reset
guitar tuner
edit
Autoscroll
slow
fast
+/-
esc
set tempo
stop
--------------------------------------------------------------------------------
                    EYES ADRIFT   ALASKA
--------------------------------------------------------------------------------

Tabbed by: Gaz Flint
e-mail; gaznirvanachilipepperdude@hotmail.com

tuning; normal E,A,D,G

main riff, intro/verse
G-----------------------------------------
D-----------------------------------------
A--3---2---0---------------3---2---0------
E--------------3---2---0----------------3-

chorus
G----------------------------
D----------------------------
A--0------3------5-----------
E-----------------------5----

then when it repeats the chorus on the 2nd chorus it changes to this
G---------------------------------------------
D---------------------------------------------
A--0-0-0-0-0--3-3-3-3-3--5-5-5-5-5------------
E-----------------------------------5-5-5-5---

then when the singing stops near the end it changes to this 
G------------------------------------------------------------------
D------------------------------------------------------------------
A--12-12-12-12-12--15-15-15-15-15--17-17-17-17-17-15-12-12-12-12---
E------------------------------------------------------------------


Eyes adrift are a really cool band, im really surprised they dont have more fans,
i mean Krist Novoselic of Nirvana is in them, and the Meat puppets legend Kurt
Kirkwood,they really do rule. Just listen to the CD for the timings,its not hard
to pick up. Enjoy!

            
            
Suggest correction
Creating personal tab
Creating personal tab
You can edit any tab online and save it as your Personal.

You can edit, replace or remove any tab part or add personal notes – all changes will be seen only by you.

Personal tabs can be accessed anytime from any device, even offline.
Learn more »
Give kudos to tab author, rate the tab!
1 2 3 4 5
comments
print report bad tab
1 comment total.
+1 reply
HeathersLeg 10 Aug 19, 2008 08:47 AM

There is a little variation in the chorus, it goes something like this:

Krist uses this mostly on the last bars of the chorus. It's a nice variation, listen out for it.

G----------5-5-5-5--------------------
D--7-7-7-7---------7-6-5-(0)----------
A----------------------------5-5-5-3-0
E-------------------------------------

guest
Wanna post a correction for this tab? Suggest correction