Oops, an error
Loading. Please wait.

One In The Same Tab

7 views 1 this week
no commentswrite comment
1 2 3 4 5
3 more votes to show rating
add to favorites
launch autoscroll
font size
0
reset
how to read this tab
guitar tuner
Autoscroll
slow
fast
+/-
esc
set tempo
stop
Help us to improve Ultimate-Guitar.com Take our survey!
×
Author
Difficulty
novice
About this tab version
The guitarist sometimes plays a couple notes (like a 7-5-7 on the A string) after the E on the seventh is played. I did not account for that in this tab as I think it seems like mostly improv. Was this info helpful? Yes No
[Intro]
Repeat this ~16x
e|---------------------------------------------------------------------------|
B|-------------10p9--------------------10p9----------------------------------|
G|-------11p9--------11p9--------11p9--------11p9----------------------------|
D|-9h12--------------------9h12----------------------------------------------|
A|---------------------------------------------------------------------------|
E|---------------------------------------------------------------------------|

Repeat this 4x
e|----7-----9----------------------------------------------------------------|
B|----7-----10---9-----------------------------------------------------------|
G|----7-----11---9-----------------------------------------------------------|
D|----9-----11---9-----------------------------------------------------------|
A|----9---9-9----7-----------------------------------------------------------|
E|--7-7----------------------------------------------------------------------|


[Verse]
Repeat this ~11x
e|---------------------------------------------------------------------------|
B|-------------10p9--------------------10p9----------------------------------|
G|-------11p9--------11p9--------11p9--------11p9----------------------------|
D|-9h12--------------------9h12----------------------------------------------|
A|---------------------------------------------------------------------------|
E|---------------------------------------------------------------------------|

Repeat this 4x
e|----7-----9----------------------------------------------------------------|
B|----7-----10---9-----------------------------------------------------------|
G|----7-----11---9-----------------------------------------------------------|
D|----9-----11---9-----------------------------------------------------------|
A|----9---9-9----7-----------------------------------------------------------|
E|--7-7----------------------------------------------------------------------|


[Chorus]

Repeat this 4x
e|----7------9---------------------------------------------------------------|
B|----7------10----9---------------------------------------------------------|
G|----7------11----9---------------------------------------------------------|
D|----9------11----9---------------------------------------------------------|
A|----9----9-9-----7---------------------------------------------------------|
E|--7-7----------------------------------------------------------------------|


[Verse]

Repeat this 4x
e|----7------9---------------------------------------------------------------|
B|----7------10----9---------------------------------------------------------|
G|----7------11----9---------------------------------------------------------|
D|----9------11----9---------------------------------------------------------|
A|----9----9-9-----7---------------------------------------------------------|
E|--7-7----------------------------------------------------------------------|

Repeat this 8x
e|---------------------------------------------------------------------------|
B|-------------10p9--------------------10p9----------------------------------|
G|-------11p9--------11p9--------11p9--------11p9----------------------------|
D|-9h12--------------------9h12----------------------------------------------|
A|---------------------------------------------------------------------------|
E|---------------------------------------------------------------------------|

[Chorus]

Repeat this x4
e|----7------9---------------------------------------------------------------|
B|----7------10----9---------------------------------------------------------|
G|----7------11----9---------------------------------------------------------|
D|----9------11----9---------------------------------------------------------|
A|----9----9-9-----7---------------------------------------------------------|
E|--7-7----------------------------------------------------------------------|

[Presolo]

Repeat this 8x
e|---------------------------------------------------------------------------|
B|-------------10p9--------------------10p9----------------------------------|
G|-------11p9--------11p9--------11p9--------11p9----------------------------|
D|-9h12--------------------9h12----------------------------------------------|
A|---------------------------------------------------------------------------|
E|---------------------------------------------------------------------------|


[Solo]

e|---------------------------------------------------------------------------|
B|------------------7--------------------------------------------------------|
G|----9b10-7------7---7----9b10-7-------7-6----------------------------------|
D|-9---------9-7-9------9---------9-7-9-----9--------------------------------|
A|--------------------------------------------9------------------------------|
E|---------------------------------------------------------------------------|

[Chorus]

Repeat this 4x
e|----7------9---------------------------------------------------------------|
B|----7------10----9---------------------------------------------------------|
G|----7------11----9---------------------------------------------------------|
D|----9------11----9---------------------------------------------------------|
A|----9----9-9-----7---------------------------------------------------------|
E|--7-7----------------------------------------------------------------------|



************************************

| p  Pull-off
| h  Hammer-on
| ~  Vibrato
| b  Bend

************************************
Suggest correction
Give kudos to tab author, rate the tab!
1 2 3 4 5
comments
print report bad tab
guest
You may want to rate the tab now too:
select rating
Wanna post a correction for this tab? Suggest correction