Oops, an error
Loading. Please wait.

Bitter Pill Bass Tab

233 views 1 this week
no commentswrite comment
1 2 3 4 5
please rate
add to favorites
launch autoscroll
font size
0
reset
guitar tuner
Tab Pro tools
  • play this tab
  • loop segment
  • change instrument
  • show fretboard
  • metronome
×
Best way to learn
"Bitter Pill"
Autoscroll
slow
fast
+/-
esc
set tempo
stop
Difficulty
Tuning
intermediate
D A D G B E
tunning drop D 
actually you can play it on G-D-A-E

Intro                                           
G--------------------|                   
D--------------------|                   
A--------------------|                     
E-3-2-3-5-3-2-(x2)---|                     


(00:04)
G-----------------------------------------|
D------7-9-----7-9-----7-9-----9-7--------| (x2)
A-----------------------------------------|
E-/7-7-----7-7-----7-7-----7-7------------|


(00:13)
G----------------------------------------|
D-----5-7-----5-7-----5-7-----7-5--------| (x2)
A----------------------------------------|
D-3-3-----3-3-----3-3-----3-3------------|


(00:22)
G----------------------------------------|
D-----7-9-----7-9-----7-9-----9-7--------| (x2)
A----------------------------------------|
E-7-7-----7-7-----7-7-----7-7------------|

(00:34)
G----------------------------------------|
D-----5-7-----5-7-----5-7-----7-5--------| (x2)
A----------------------------------------|
D-3-3-----3-3-----3-3-----3-3------------|


(00:41)
G---------------------------------------------------------|
D---------------------------------------------------------| 
A---------------------------------------------------------|
D--/77--77--77--77--66--66------3-2-3-5-3-2-(x2)----------|
(x2) at the second time play a slide from 7 to 0 on the D string 


NO BASS FROM 00:41 TO 1:07


(1:07) if you´re playing the first version of the song play this but on the higher D string 
G---------------------------------------------------------|
D---------------------------------------------------------|
A---------------------------------------------------------|
D--/77--77--77------66--66------3-2-3-5-3-2-(x2)----------|

G-------------------------------------------------------------------------------|
D-------------------------------------------------------------------------------|  
A-------------------------------------------------------------------------------|
D--77777-7-7----77777-7-7----77777-7-7---33333-3-3----3-2-3-5-3-2-(x2)----------|
(X2) at the second time end with a holding 3 on the D string


NO BASS UNTIL (01:51)
G----5-4----------------------|
D--3-----5-7-----------3------| (X2)
A------------3-2-----0--------|
D-----------------------------|


(02:10)
G----------------------------------|
D---3-----5------7-----3----5----7-| 
A-0--------------------------------|
D----------------------------------|
(X4) AT THE END CHANGE THE 7 TO 7 ON THE LOWER D STRING 


(02:41)
G----------------------------------------------|
D----------------------------------------------| (X2)
A----------------------------------------------|
D--7-7-7-7-(X4)---3-3-3-3-(X2)-----5-5-5-5-----|


(02:59) play this if ur using the second version of the song 
G----------------------------------------------------------|
D----------------------------------------------------------| (X3)
A----------------------------------------------------------|
D--3-3-3-3-3-3---5-5-5-5-5------77777--777777--77777-7777--|


(02:59) play this if ur using the first version of the song 
G--------------------------------------------------------------------------|
D--------------------------------------------------------------------------|  
A-------------------------------12-12-12-12/-7-7-7-7-(x2)------------------|
D--3-3-3-3-3-3---5-5-5-5-5-------------------------------------------------|
(X3) third time u end with a 7 on the lower D string


(03:37) play this until the end 
G---------------------------------------------------------------------------|
D------------------7--------------------------------------------------------| 
A----------------7----(x2)------------------5-3-2-3--(x2)-------------------|
D--7-7---7-7-777-------------3-3---3-3-3333---------------------------------|
comments
We did not receive enough feedback on this tab! Please rate:
print report bad tab
1 2 3 4 5
I want to post or [tab]
guest
You may want to rate the tab now too:
select rating
Please do not post tabs as comments. Select "correction" instead!