Oops, an error
Loading. Please wait.

Broken Frames bass

version 1
version 1

Whole song

Interactive

1,673 views 1 this week
3 commentsread comments
1 2 3 4 5
2 more votes to show rating
add to favorites
×
Save as Personal and add changes to this tab that will be seen only by you. Learn more ›
×
You can save this tab as Personal to edit and correct it or add notes. All changes will be seen only by you. Learn more »
launch autoscroll
font size
0
reset
guitar tuner
edit
Autoscroll
slow
fast
+/-
esc
set tempo
stop
Author
This is my first tab ever so if you have any questions email me: colleendiane88@yahoo.com


Intro
(..when all is said...)
G|--------------------------------------------------------------|
D|--------------------------------------------------------------|
A|--------------------------------------------------------------|
E|-2-2~----2-2~-----2-2~----2-2~-----2-2~-----2-2~-----2~-------|
 
Verse
(..never talk back to me...)
G|------------------------------------------------------------|
D|------------------------------------------------------------|
A|------------------------------------------------------------|
E|-0~-0000000000000-2~-2222222222222--------------------------|

G|------------------------------------------------------------|
D|------------------------------------------------------------|
A|------------------------------------------------------------|
E|-0~-0000000000000-2~-2222222222222--------------------------|
 
G|------------------------------------------------------------|
D|------------------------------------------------------------|
A|------------------------------------------------------------|
E|-0~-0000000000000-2~-2222222222222--------------------------|

G|----------------------------------------|
D|----------------------------------------|
A|----------------------------------------|
E|-0~-0000000000000-----------------------|

Chorus
(..and when you say my name...)
G|---------------------------------------------------------------------|
D|---------------------------------------------------------------------|
A|------------------------------3333333333333333-----------------------|
E|-222222222222-5555555555555555----------------0000000000000000-------|
 
Fill
G|-----------------------------------------------------------------|
D|-----------------------------------------------------------------|
A|-----------------------------------------------------------------|
E|-2~-0-0--0--0-0-2~-0-0-------------------------------------------|
 
Verse 2
(..you’re bitter...)
G|-----------------------------------------------------|
D|-----------------------------------------------------|
A|-----------------------------------------------------|
E|-2~-2222222222222-0~-0000000000000-------------------|

G|-----------------------------------------------------|
D|-----------------------------------------------------|
A|-----------------------------------------------------|
E|-2~-2222222222222-0~-0000000000000-------------------|

G|-----------------------------------------------------|
D|-----------------------------------------------------|
A|-----------------------------------------------------|
E|-2~-2222222222222-0~-0000000000000-------------------|

G|-----------------------------------------------------|
D|-----------------------------------------------------|
A|-----------------------------------------------------|
E|-2~-2222222222222-0~-0000000000000-------------------|

Chorus

G|---------------------------------------------------------------------|
D|---------------------------------------------------------------------|
A|------------------------------3333333333333333-----------------------|
E|-222222222222-5555555555555555----------------0000000000000000-------|

G|---------------------------------------------------------------------|
D|---------------------------------------------------------------------|
A|------------------------------3333333333333333-----------------------|
E|-222222222222-5555555555555555----------------0000000000000000-------|


Bridge
(..far away, far away...)
G|-------------------------------------------------------------------|
D|-------------------------------------------------------------------|
A|-----------------------------------3~----3~------------------------|
E|-2-2x--2-2x--0-0--2-2x--2-2x--0-0-------------0--0-0---------------|
 
G|--------------------------------------------------------------------|
D|--------------------------------------------------------------------|
A|-----------------------------------3~-------------------------------|
E|-2-2x--2-2x--0-0--2-2x--2-2x--0-0----------0----0---2---------------|

Chorus
G|---------------------------------------------------------------------|
D|---------------------------------------------------------------------|
A|------------------------------3333333333333333-----------------------|
E|--------------5555555555555555----------------0000000000000000-------|

G|---------------------------------------------------------------------|
D|---------------------------------------------------------------------|
A|------------------------------3333333333333333-----------------------|
E|-222222222222-5555555555555555----------------0000000000000000-------|

G|---------------------------------------------------------------------|
D|---------------------------------------------------------------------|
A|------------------------------3333333333333333-----------------------|
E|-222222222222-5555555555555555----------------0000000000000000-------|

G|---------------------------------------------------------------------|
D|---------------------------------------------------------------------|
A|------------------------------3333333333333333-----------------------|
E|-222222222222-5555555555555555----------------0000000000000000-------|

Outro

G|---------------------------------------------------|
D|---------------------------------------------------|
A|---------------------------------------------------|
E|-2~----2-2~--2-2~----2~----2-2~--2-2~-----2x-------|

            
            
Suggest correction
Creating personal tab
Creating personal tab
You can edit any tab online and save it as your Personal.

You can edit, replace or remove any tab part or add personal notes – all changes will be seen only by you.

Personal tabs can be accessed anytime from any device, even offline.
Learn more »
Give kudos to tab author, rate the tab!
1 2 3 4 5
comments
print report bad tab
3 comments total.
0 reply
Colleen Diane 51 Jun 05, 2012 02:49 PM

PLEASE READ!!!!!!!! If you're looking at the bass tab, the chorus is slightly wrong.

This is how the chorus should go:

G|---------------------------------------------------------------------|
D|---------------------------------------------------------------------|
A|------------------------------3333333333333333-----------------------|
E|-222222222222-5555555555555555----------------0000000000000000-------|

An honest mistake by me.

Sincerely and sorry,
Colleen Diane

0 reply
alextheplonker 10 May 01, 2013 09:43 AM

What is the tuning?

0 reply
alextheplonker 10 May 01, 2013 09:44 AM

Never mind I wasn't paying attention

guest
You may want to rate the tab now too:
select rating
Wanna post a correction for this tab? Suggest correction