Oops, an error
Loading. Please wait.

Darling bass

version 1
version 1

Whole song

Interactive

13,362 views 6 this week
3 commentsread comments
1 2 3 4 5
x 3
add to favorites
×
Save as Personal and add changes to this tab that will be seen only by you. Learn more ›
×
You can save this tab as Personal to edit and correct it or add notes. All changes will be seen only by you. Learn more »
launch autoscroll
font size
0
reset
guitar tuner
edit
Autoscroll
slow
fast
+/-
esc
set tempo
stop
Eyes Set to Kill - Darling

(/)-Slide
(.)-Palm Mute
(~)-Ring

Intro

1.
G|---------------------------------------------------------------------|
D|---------------------------------------------------------------------|x4
A|-00-00000000-77-777-8-7-5-7-5-3--------------------------------------|
E|---------------------------------------------------------------------|

Verse

2.
G|---------------------------------------------------------------------|
D|---------------------------------------------------------------------|
A|-8-7-5-7~-8-7-5-7~-00.00000000---------------------------------------|x3
E|---------------------------------------------------------------------|

3.
G|---------------------------------------------------------------------|
D|---------------------------------------------------------------------|
A|-8-7-5-7~-8-7-5-7~-00.00-8-7-5-7-5-3---------------------------------|
E|---------------------------------------------------------------------|

4.
G|-----------------------------------------------------------------|
D|-----------------------------------------------------------------|
A|-00000.----------------------------------------------------------|x8
E|-----------------------------------------------------------------|

5.
G|-----------------------------------------------------|
D|-----------------------------------------------------|x8
A|-00000~-00~-00~--------------------------------------|
E|-----------------------------------------------------|

6.
G|-----------------------------------------------------------------|
D|-----------------------------------------------------------------|
A|-1~-1/8-8/1.----------------------------------------------------|
E|-----------------------------------------------------------------|

7.
G|-----------------------------------------------------------------|
D|-----------------------------------------------------------------|
A|-1111111111111-55555555555555------------------------------------|x3
E|-----------------------------------------------------------------|

8.
G|-----------------------------------------------------------------|
D|-----------------------------------------------------------------|
A|-1111111111111---------------------------------------------------|
E|-----------------------------------------------------------------|

9.
G|------------------------------------------------------------------------------|
D|------------------------------------------------------------------------------|
A|-55555---12~-55555-8~-55555--7~-55555-8~-55555---12~-55555-8~-55555--7~-------|x2
E|------------------------------------------------------------------------------|

Bridge 

10.
G|-7-7-7-7-9-9-9-9-7-7-7-7-9-9-9-9-7-7-9-9-9-9-9--9--9--9-------------------------------|
D|--8-8-8-8-8-8-8-8-8-8-8-8-8-8-8-8-0-0-0-0-0-0-10-10-10-10-----------------------------|
A|--------------------------------------------------------------------------------------|
E|--------------------------------------------------------------------------------------|x5 

11.
G|---------------------------------|
D|---------------------------------|
A|-1~1~1~1~5~5~7~7~----------------|
E|---------------------------------|x3

Outro
12.
G|-------------------------|
D|-------------------------|
A|-1~1~1~1~5~5~7~7~8~------|
E|-------------------------|

that's it, hope it like you, if is something wrong just notifies it here: jgmontero13@hotmail.com

            
            
Suggest correction
Creating personal tab
Creating personal tab
You can edit any tab online and save it as your Personal.

You can edit, replace or remove any tab part or add personal notes – all changes will be seen only by you.

Personal tabs can be accessed anytime from any device, even offline.
Learn more »
Give kudos to tab author, rate the tab!
1 2 3 4 5
comments
print report bad tab
3 comments total.
0 reply
bassbomb1193 320 Feb 07, 2009 10:13 AM

it sucks balls
way suckish

0 reply
macs*67 10 Jun 11, 2009 10:18 PM

i think the bridge is off,,,, or maybe i cant hear, i tink its off, and please like, its very hard to follow, so better labeling is in need, and i also think the ending needs work, please see if you can fix it,

0 reply
Phantom778 51 Jun 12, 2010 12:16 PM

I think where you have an open A should actually be an open D on the E string (Drop D)

guest
Wanna post a correction for this tab? Suggest correction