Oops, an error
Loading. Please wait.

Darling Tab

version 1
version 1

Whole song

Interactive

46,162 views 6 this week
10 commentsread comments
1 2 3 4 5
accurate
x 6
add to favorites
launch autoscroll
font size
0
reset
how to read this tab
guitar tuner
Tab Pro tools
  • play this tab
  • loop segment
  • change instrument
  • show fretboard
  • metronome
×
Best way to learn
"Darling"
Autoscroll
slow
fast
+/-
esc
set tempo
stop
Contributor
Eyes Set to Kill- Darling

(/)-Slide
(h)-Hammer on
(p)-Pull off
(P.M)-Palm Mute

Drop D

INTRO
e|------------------------------------------------------------------|4x
B|------------------------------------------------------------------| 
G|------------------------------------------------------------------|
D|--00--00000000--77-777-8-7-5-7-5-3--------------------------------|
A|--00--00000000--77-777-8-7-5-7-5-3--------------------------------|
E|--00--00000000--77-777-8-7-5-7-5-3--------------------------------|
P.M...  ........  .. ... . . . . . .

VERSE
e|------------------------------------------------------------------|4x
B|------------------------------------------------------------------| 
G|-------10-10-10-10-10-------99999-------1212121212-------99999----|
D|--000---x--x--x--x--x--000--xxxxx--000---x-x-x-x-x--000--xxxxx----|
A|--000---8--8--8--8--8--000--77777--000--1010101010--000--77777----|
E|--000------------------000---------000--------------000-----------|
P.M....                  ...         ...              ...

e|------------------------------------------------------------------|5x
B|------------------------------------------------------------------| 
G|------------------------------------------------------------------|
D|--0000000--------------888/7----0000000---------------------------|
A|--0000000--888/777/555/---------0000000--888/777/555/15-----------|
E|--0000000-----------------------0000000---------------------------|
P.M........                       .......

e|------------------------------------------------------------------|4x
B|------------------------------------------------------------------| 
G|------------------------------------------------------------------|
D|--0000000-00-00-2h3p2-----0000000-00-00-0-------------------------|
A|--0000000-00-00-------3h5-0000000-00-00-0-4~----------------------|
E|--0000000-00-00-----------0000000-00-00-0-------------------------|
P.M........ .. ..           ....... .. .. .


e|----------------|
B|----------------| 
G|----------------|
D|---9-9~--7h8p7--|
A|---9-9~---------|
E|---9-9~---------|

Mini Solo
e|--------15-13-12h13p12-15-13-10h12p10h12-------------------------|
B|-----------------------------------------------------------------| 
G|-----------------------------------------------------------------|
D|-----------------------------------------------------------------|
A|-----------------------------------------------------------------|
E|-----------------------------------------------------------------|

e|-----------------------------------------------------------------|2x
B|-----------------------------------------------------------------| 
G|--------14141414-------10101010-------12121212-------9999--------|
D|--0000---x-x-x-x--0000--x-x-x-x--0000--x-x-x-x--0000-xxxx--------|
A|--0000--12121212--0000--8-8-8-8--0000-10101010--0000-7777--------|
E|--0000------------0000-----------0000-----------0000-------------|
P.M.....            ....           ....           ....

e|-----------------------------------------------------------------|
B|-----------------------------------------------------------------| 
G|-----------------------------------------------------------------|
D|-----------------------------------------------------------------|
A|--888/777/555/4---(2nd time) 888/777/555/4/1---------------------|
E|-----------------------------------------------------------------|

CLEAN
e|-----------------------------------------------------------------|6x
B|-----------------------------------------------------------------| 
G|-----------------------------------------------------------------|
D|--3-3-3-0-0-0-2-2-2-0-0-0-3-3-3-0-0-0-2-2-2-2-2------------------|
A|---0-0-0-0-0-0-0-0-0-0-0-0-0-0-0-0-0-0-0-0-0-0-0-----------------|
E|-----------------------------------------------------------------|

OUTRO
e|-----------------------------------------------------------------|
B|-----------------------------------------------------------------| 
G|--14141414-10101010-12121212-9999--8~----------------------------|
D|---x-x-x-x--x-x-x-x--x-x-x-x-xxxx--8~----------------------------|
A|--12121212--8-8-8-8-10101010-7777--8~----------------------------|
E|-----------------------------------------------------------------|
comments
print report bad tab
10 comments total. Showing first comments.
0 reply
piggypoptart wrote on November 24 2006, 08:39 pm

nice.
great band

0 reply
dude444 wrote on November 26 2006, 03:21 am

There's a part missing from the verse.
Other than that, great tab.

0 reply
ehhwan wrote on January 27 2007, 02:52 pm

can someone tab the song Liar In The Glass

I want to post or [tab]
guest
You may want to rate the tab now too:
select rating
Please do not post tabs as comments. Select "correction" instead!