Oops, an error
Loading. Please wait.

Darling bass

version 3
version 3

Whole song

Interactive

2,041 views 3 this week
no commentswrite comment
1 2 3 4 5
3 more votes to show rating
add to favorites
×
Save as Personal and add changes to this tab that will be seen only by you. Learn more ›
×
You can save this tab as Personal to edit and correct it or add notes. All changes will be seen only by you. Learn more »
launch autoscroll
font size
0
reset
guitar tuner
edit
Autoscroll
slow
fast
+/-
esc
set tempo
stop
-------------------------------------------------------------------------------
			     DARLING - Eyes Set to Kill
-------------------------------------------------------------------------------

Tabbed By : Phantom778
e-mail: jmsphantom778@gmail.com

Tuning: Drop D

This song is pretty easy and fun to play. I tried to tab it as close as
possible to how Anissa played it on the album but it is by ear so parts may
be wrong. Youtube also helped but people tend to play it different ways in
every video so here is the best I could do. I hope you Enjoy!


(Play this part 4 times)
"Don't lie, don't lie to me now! I am erasing you!"
G|---------------------------------------------------------------------------|
D|---------------------------------------------------------------------------|
A|---------------------------------------------------------------------------|
D|-------0-0-00000000-0-0-0-0-0-0h8-8-8888h9-8-5-7-5-3-----------------------|

(Repeat the first part 4 times, before adding the 9-8-5-7-5-3)
"Breath in Slowly now, darling don't lie to me"
G|---------------------------------------------------------------------------|
D|---------------------------------------------------------------------------|
A|---------------------------------------------------------------------------|
D|------8-8-8-8--8-8-8-8--0-0-0-0--0-0-0-0|(4x)|---9-8-5-7-5-3---------------|

(Play this 2 times, on the second run the scream should come in)
"Mindset of failure, the road you chose!"
G|---------------------------------------------------------------------------|
D|---------------------------------------------------------------------------|
A|----------------------------------4~---------------------------------------|
D|-------0000000------0000000-----------0000000-----0000000-0-0-0-0-4--------|

Scream ends(break down begins) Play this 4 times then end with open A
"OOOHHHHH!!"
G|-----------------------------------------------------|----------------------|
D|--------------------3-2---2-----------------3-2------|----------------------|
A|------------------------3-----------------------3----|---0~~~~--------------|
D|-----00000000-0-0-00--------00000000-0-0-00----------|----------------------|

(Play 4 times as well)
"Take your time, I'm only dieing"
G|---------------------------------------------------------------------------|
D|---------------------------------------------------------------------------|
A|----3-0-0-5-0-0-6-0-0-8-0-0-13-12------------------------------------------|
D|-----------------------------------8-8-8-8-8-8-8-8-8-8-8-8-8-8-------------|

(Play this as soon as Brandon finishes screaming)
"Deep inside is where it lies!" (play this until all instruments stop playing except for 
guitar.)
G|---------------------------------------------------------------------------|
D|---------------------------------------------------------------------------|
A|---------------------------------------------------------------------------|
D|--000000000000000000000000000000008888888888888888888888888----------------|

(Come in at the same time as Alexia begins to sing, and repeat the following)
"Don't mind me, I'm only dieing"
G|---------------------------------------------------------------------------|
D|---------------------------------------------------------------------------|
A|---------------------------------------------------------------------------|
D|--88888888888888888888888000000000000777777777777--------------------------|

(Change to this when she sings)
"what got me into this mess that devoured me?" (and continue till end of song)
G|---------------------------------------------------------------------------|
D|---------------------------------------------------------------------------|
A|-----------------------------55555-55555-77777-88888-----------------------|
D|-----88888-88888-88888-88888-----------------------------------------------|


| /  slide up
| \  slide down
| h  hammer-on
| p  pull-off
| ~  vibrato
| +  harmonic
| x  Mute note
===============================================================================

            
            
Suggest correction
Creating personal tab
Creating personal tab
You can edit any tab online and save it as your Personal.

You can edit, replace or remove any tab part or add personal notes – all changes will be seen only by you.

Personal tabs can be accessed anytime from any device, even offline.
Learn more »
Give kudos to tab author, rate the tab!
1 2 3 4 5
comments
print report bad tab
guest
You may want to rate the tab now too:
select rating
Wanna post a correction for this tab? Suggest correction