Oops, an error
Loading. Please wait.

Darling tab

version 3
version 3

Whole song

Interactive

5,977 views 1 this week
1 commentread comment
1 2 3 4 5
2 more votes to show rating
add to favorites
×
Save as Personal and add changes to this tab that will be seen only by you. Learn more ›
×
You can save this tab as Personal to edit and correct it or add notes. All changes will be seen only by you. Learn more »
launch autoscroll
font size
0
reset
how to read this tab
guitar tuner
edit
Autoscroll
slow
fast
+/-
esc
set tempo
stop
Intro
e|------------------------------------------------------------------|x4
B|------------------------------------------------------------------| 
G|------------------------------------------------------------------|
D|--00--0000000-0-0-0-0-0-0-77-777777-8-7-5-7-5-3-------------------|
A|--00--0000000-0-0-0-0-0-0-77-777777-8-7-5-7-5-3-------------------|
D|--00--0000000-0-0-0-0-0-0-77-777777-8-7-5-7-5-3-------------------|
    ..  ....... . . . . . . .. ...... . . . . . .

Guitar 2
e|---------3h5-x-0h1p0----3h5---------------------------------------|x4
B|---------------------1h3----6p5-----------------------------------| 
G|------------------------------------------------------------------|
D|------------------------------------------------------------------|
A|------------------------------------------------------------------|
D|------------------------------------------------------------------|


e|------------------------------------------------------------------|x4
B|------------------------------------------------------------------| 
G|-------10-10-10-10--------9999-------12121212-------9999----------|
D|--888---x--x--x--x----888-xxxx--000---x-x-x-x--000--xxxx----------|
A|--888---8--8--8--8----888-7777--000--10101010--000--7777----------|
D|--888-----------------888-------000------------000----------------|
    ...                 ...       ...            ...


e|------------------------------------------------------------------|
B|------------------------------------------------------------------| 
G|------------------------------------------------------------------|
D|--8-7-5-7-5-3-----------------------------------------------------|
A|--8-7-5-7-5-3-----------------------------------------------------|
D|--8-7-5-7-5-3-----------------------------------------------------|
    . . . . . .

e|------------------------------------------------------------------|
B|------------------------------------------------------------------| 
G|------------------------------------------------------------------|
D|-----------101010999777------------------101010999777-12/---------|
A|--0000000--------------888777---0000000---------------------------|
D|--0000000-----------------------0000000---------------------------|
    .......                       .......

e|------------------------------------------------------------------|
B|------------------------------------------------------------------| 
G|------------------------------------------------------------------|
D|-----------101010999777-------------------------------------------|
A|--0000000--------------888777---0000000-000-00-0-0-11-------------|
D|--0000000-----------------------0000000-000-00-0-0----------------|
    .......                       ....... ... .. . .

e|------------------------------------------------------------------|
B|------------------------------------------------------------------| 
G|------------------------------------------------------------------|
D|-----------101010999777------------------101010999777-12/---------|
A|--0000000--------------888777---0000000---------------------------|
D|--0000000-----------------------0000000---------------------------|
    .......                       .......


e|------------------------------------------------------------------|
B|------------------------------------------------------------------| 
G|------------------------------------------------------------------|
D|-----------333222000----------------------------------------------|
A|--0000000-----------111000------0000000-000-00-0-0--11------------|
D|--0000000-----------------------0000000-000-00-0-0----------------|
    .......                       ....... ... .. . .

e|------------------------------------------------------------------|
B|------------------------------------------------------------------| 
G|------------------------------------------------------------------|
D|-----------------10p9---7-----------------------------------------|
A|--0000000-000-00------10---0000000-000-00-0-0-0-0--11-------------|
D|--0000000-000-00-----------0000000-000-00-0-0-0-0-----------------|
    ....... ... ..           ....... ... .. . . . .

e|------------------------------------------------------------------|
B|------------------------------------------------------------------| 
G|------------------------------------------------------------------|
D|-----------------10p9---7-----------------------------------------|
A|--0000000-000-00------10---0000000-000-00-0-0-0-0--11-------------|
D|--0000000-000-00-----------0000000-000-00-0-0-0-0-----------------|
    ....... ... ..           ....... ... .. . . . .


e|------------------------------------------------------------------|
B|------------------------------------------------------------------| 
G|------------------------------------------------------------------|
D|-----------------10p9---7-----------------------------------------|
A|--0000000-000-00------10---0000000-000-00-0-0-0-0--11-------------|
D|--0000000-000-00-----------0000000-000-00-0-0-0-0-----------------|
    ....... ... ..           ....... ... .. . . . .

e|------------------------------------------------------------------|
B|------------------------------------------------------------------| 
G|------------------------------------------------------------------|
D|-----------------10p9---7-----------------------------------------|
A|--0000000-000-00------10---0000000-000-00-0-0-0-0--11-------------|
D|--0000000-000-00-----------0000000-000-00-0-0-0-0-----------------|
    ....... ... ..           ....... ... .. . . . .

e|------------------------------------------------------------------|
B|------------------------------------------------------------------|
G|------------------------------------------------------------------|
D|---8-------------------------------10-----------------------------|
A|---8-------------------------------8------------------------------|
D|---8-------------------------------8------------------------------|


solo:
e|------------------------------------------------------------------|
B|---15-17-15-18-15-15-20-15-17-15-15h17p15-15----------------------|
G|------------------------------------------------------------------|
D|------------------------------------------------------------------|
A|------------------------------------------------------------------|
D|------------------------------------------------------------------|
      





e|-------------------------------------------------------------------|
B|------15-17-18-18-17-15--------------------------------------------|
G|-------------------------------------------------------------------|
D|-------------------------------------------------------------------|
A|-------------------------------------------------------------------|
D|-------------------------------------------------------------------|




e|------------------------------------------------------------------|
B|-----15-17-15-18-15-15-20-15-17-15-15h17p15-15--------------------|
G|------------------------------------------------------------------|
D|------------------------------------------------------------------|
A|------------------------------------------------------------------|
D|------------------------------------------------------------------|

e|----------------------------------------------------------------|
B|-------15-17-15-18-15-15-20-15-17-15-18p17p15-18p17p15----------|
G|----------------------------------------------------------------|
D|----------------------------------------------------------------|
A|----------------------------------------------------------------|
D|----------------------------------------------------------------|

D|----------------------------------------------------------------|\
B|---------------------------------------------------------- ------| \
G|--------14141414-------10101010-------12121212-------9999-------|  \
D|--0000---x-x-x-x--0000--x-x-x-x--0000--x-x-x-x--0000-xxxx-------|  |
A|--0000--12121212--0000--8-8-8-8--0000-10101010--0000-7777-------|  |
D|--0000------------0000-----------0000-----------0000------------|  |
    ....            ....           ....           ....               |
											     x2
D|----------------------------------------------------------------|  |
B|---------------------------------------------------------- ------|  |
G|--------14141414-------10101010-------9-------------------------|  |
D|--8888---x-x-x-x--8888--x-x-x-x--8888-x-101010999777------------|  /
A|--8888--12121212--8888--8-8-8-8--8888-7-------------888777------| / 
D|--8888------------8888-----------8888---------------------------|/



e|----------------------------------------------------------------|
B|----------------------------------------------------------------|
G|----------------------------------------------------------------|
D|----3-3-3-0-0-0-2-2-2-0-0-0-3-3-3-0-0-0-2-2-2-0-0-0-------------|x6
A|-----1-1-1-1-1-1-1-1-1-1-1-1-0-0-0-0-0-0-0-0-0-0-0-0------------|
D|----------------------------------------------------------------|

            
            
Suggest correction
Creating personal tab
Creating personal tab
You can edit any tab online and save it as your Personal.

You can edit, replace or remove any tab part or add personal notes – all changes will be seen only by you.

Personal tabs can be accessed anytime from any device, even offline.
Learn more »
Give kudos to tab author, rate the tab!
1 2 3 4 5
comments
print report bad tab
1 comment total.
0 reply
soccerNmusic 10 Oct 19, 2010 07:36 AM

Where'd the rest of the tab go after the clean part???

guest
Wanna post a correction for this tab? Suggest correction