Oops, an error
Loading. Please wait.

Flight On Broken Wings bass

1,035 views 1 this week
no commentswrite comment
1 2 3 4 5
3 more votes to show rating
add to favorites
×
Save as Personal and add changes to this tab that will be seen only by you. Learn more ›
×
You can save this tab as Personal to edit and correct it or add notes. All changes will be seen only by you. Learn more »
launch autoscroll
font size
0
reset
guitar tuner
edit
Autoscroll
slow
fast
+/-
esc
set tempo
stop
Author
++++++++++++++++++++++++++++++++++++++++++++
| Eyes Set To Kill- Flight On Broken Wings |
++++++++++++++++++++++++++++++++++++++++++++

Hope you enjoy ;)
I really like the bassist of this band

Tuning: EADG

0:51
1.
G|---------------------------------------------------------------------|
D|---------------------------------------------------------------------|
A|---------------------------------------------------------------------|
E|-1-1111-1x--------1-1111-1x--------5-5555-5x--------5-5555-5x--------|

2.
G|---------------------------------------------------------------------|
D|---------------------------------------------------------------------|
A|---------------------------------------------------------------------|--x3
E|-1-1111-1~--11x---1-1111-1~--------5-5555-5~--55x---5-5555-5~--------|

Verse
2:06
3.
G|---------------------------------------------------------------------|
D|---------------------------------------------------------------------|
A|---5-3-2-5--3--2----5-3-2-5--3--2----7-5-3-7--5--3----7-5-3-7--5--3--|--x2
E|-1----------------1----------------5----------------5----------------|

Chorus
"We fall from midnight skies..."
4.
G|-----------------------------------------------------------------|
D|-----------------------------------------------------------------|
A|-----------------------------------------------------------------|
E|-111-1-1-333-3-3-555x----555x--------111-1-1-333-3-3-555x--------|

5.
G|-----------------------------------------------------|
D|-----------------------------------------------------|
A|-----------------------------------------------------|
E|-111-1-1-333-3-3-555x----555x--------111-1-1-333-3-3-|

Verse
6.
G|-----------------------------------------------------------------|
D|-----------------------------------------------------------------|
A|---------------------------------0-000-0~--00x---0-000-0~--------|
E|-1-111-1x--------1-111-1~----------------------------------------|

7.
G|-----------------------------------------------------------------|
D|-----------------------------------------------------------------|
A|---------------------------------0-000-0~--00x---0-000-0~--------|
E|-1-111-1~--11x---1-111-1~----------------------------------------|

Outro
8.
G|-----------------------------------------------------------------|
D|-----------------------------------------------------------------|
A|---------------------------------0-000-0~--00x---0-000-0~--------|--x2
E|-1-111-1~--11x---1-111-1~----------------------------------------|

9.
G|------------------------------------------------|
D|------------------------------------------------|
A|------------------------------------------------|
E|-1~----xxx-1~----xxx-1~----xxx-1~----/5~--------|

Bridge cont
"On these broken wings..." 4:22
10.
G|---9-7---9-7\5-7-5\4-5-4-10-10-10-10-10-10/12-12-12-12-12-12-|
D|-7-----7-----------------10-10-10-10-10-10/12-12-12-12-12-12-|
A|-------------------------------------------------------------|--x4
E|-------------------------------------------------------------|

4:51
11.
G|---------------------------------|
D|---------------------------------|
A|---------------------------------|--x4
E|-555-555-555-555-111-111-333-333-|

Outro
12.
G|-------------------------|
D|-------------------------| Play till the end
A|---------------------8-7-|
E|-5x----5x----5x----5-----|

I dunno the lyrics, so dont ask for 'em :P

+++++++++++++++++++++++++++++++++
| RaiLeff                       |
| Underground__Dora@Hotmail.Com |
+++++++++++++++++++++++++++++++++

            
            
Suggest correction
Creating personal tab
Creating personal tab
You can edit any tab online and save it as your Personal.

You can edit, replace or remove any tab part or add personal notes – all changes will be seen only by you.

Personal tabs can be accessed anytime from any device, even offline.
Learn more »
Give kudos to tab author, rate the tab!
1 2 3 4 5
comments
print report bad tab
guest
You may want to rate the tab now too:
select rating
Wanna post a correction for this tab? Suggest correction