Oops, an error
Loading. Please wait.

Heights bass

version 1
version 1

Whole song

Interactive

7,191 views 1 this week
2 commentsread comments
1 2 3 4 5
x 3
add to favorites
×
Save as Personal and add changes to this tab that will be seen only by you. Learn more ›
×
You can save this tab as Personal to edit and correct it or add notes. All changes will be seen only by you. Learn more »
launch autoscroll
font size
0
reset
guitar tuner
edit
Autoscroll
slow
fast
+/-
esc
set tempo
stop
Author
-------------------------------------------------------------------------------
			     Heights - ESTK
-------------------------------------------------------------------------------

Tabbed By : Tremm
e-mail: aswefallcsm@gmail.com

Tuning: Drop C

intro/verse 0:19
F|------------------------------------------------------------------------------------------------|
C|----------------------------------------------302-0-----------------------302-0-----------------|
G|-------------------------------------------------3-31------------------------3-31---------------|
C|00----00----888-555-00----00----888-555-00------------00----888-555-00------------00----888-555-|

Pre chorus 0:40
F|------------------------------------------------------------------|
C|------------------------------------------------------------------|
G|------------------------------------------------------------------|
C|8888888888885/8888888-8-00000000-8888888888885/8888888-8-77777777-|

Chorus 0:51
F|----------------------------------------------------------------|
C|----------------------------------------------------------------|
G|----------------------------------3333333333333333-111111111111-|
C|0000000000000000-3333333333333333-------------------------------| x2

Verse 1:13
F|------------------------------------------------------------------------------------------------|
C|----------------------------------------------302-0-----------------------302-0-----------------|
G|-------------------------------------------------3-31------------------------3-31---------------|
C|00----00----888-555-00----00----888-555-00------------00----888-555-00------------00----888-555-|

Pre chorus 1:35
F|------------------------------------------------------------------|
C|------------------------------------------------------------------|
G|------------------------------------------------------------------|
C|8888888888885/8888888-8-00000000-8888888888885/8888888-8-77777777-|

Chorus 1:45
F|----------------------------------------------------------------|
C|----------------------------------------------------------------|
G|----------------------------------3333333333333333-111111111111-|
C|0000000000000000-3333333333333333-------------------------------| x2

Bridge 2:07
F|----------------------------------------------------------------|
C|----------------------------------------------------------------|
G|----------------------------------------------------------------|
C|0-0-0-0-0-0-0-0-0-0-0-0-0-0-0-0-0-0-0-0-0-0-0-0-0-0-0-0-0-0-0-0-|

"You better believe that..." 2:18
F|----------------------------------------------------------------|
C|----------------------------------------------------------------|
G|----------------------------------------------------------------|
C|0000000000000000000000000000000000000000000000000000000000000000|

Pre chorus 2:40
F|------------------------------------------------------------------|
C|------------------------------------------------------------------|
G|------------------------------------------------------------------|
C|8888888888885/8888888-8-00000000-8888888888885/8888888-8-77777777-|

Chorus 2:50
F|----------------------------------------------------------------|
C|----------------------------------------------------------------|
G|----------------------------------3333333333333333-111111111111-|
C|0000000000000000-3333333333333333-------------------------------| x2

outro 3:12
F|-------------------------------|
C|-------------------------------|
G|-------------------------------|
C|00----00----00----00--------00-|

| /  slide up
| \  slide down
| h  hammer-on
| p  pull-off
| ~  vibrato
| +  harmonic
| x  Mute note
===============================================================================
Questions Comments Concerns email me
Suggest correction
Creating personal tab
Creating personal tab
You can edit any tab online and save it as your Personal.

You can edit, replace or remove any tab part or add personal notes – all changes will be seen only by you.

Personal tabs can be accessed anytime from any device, even offline.
Learn more »
Give kudos to tab author, rate the tab!
1 2 3 4 5
comments
print report bad tab
2 comments total.
-1 reply
B@ssL0rd 10 Jun 12, 2009 06:03 PM

u made a minor mistake on the chorus it should be like this

F|----------------------------------------------------------------|
C|----------------------------------------------------------------|
G|----------------------------------------------------------------|
C|0000000000000000-3333333333333333-8888888888888888-555555555555-|

and the bridge should be like this but she starts playing after 18 seconds when the bridge starts

F|-------------|
C|----------35-|
G|--------53---|
C|00000000-----| x7

0 reply
Tremm 30 Sep 24, 2009 07:27 AM

Honestly both notes are in the chord so they both work
and i know what happens 18 seconds after the bridge starts i am also sure anissa petals a c

guest
You may want to rate the tab now too:
select rating
Wanna post a correction for this tab? Suggest correction