Oops, an error
Loading. Please wait.

Heights tab

version 1
version 1

Whole song

Interactive

12,952 views 3 this week
6 commentsread comments
1 2 3 4 5
2 more votes to show rating
add to favorites
×
Save as Personal and add changes to this tab that will be seen only by you. Learn more ›
×
You can save this tab as Personal to edit and correct it or add notes. All changes will be seen only by you. Learn more »
launch autoscroll
font size
0
reset
how to read this tab
guitar tuner
edit
Autoscroll
slow
fast
+/-
esc
set tempo
stop
verse1-both guiatrs
 |----------------------------------------------------------|
 |----------------------------------------------------------|
 |----------------------------------------------------------|
 |--00-----------------------00-----------888----555--00----| 2x
 |--00-----------------------00-----------888----555--00----|
 |--00-----------------------00-----------888----555--00----|
PM   ..                                     ..                     ..

part 2 of verse-both guitars
|-----------------|
|-----------------|
|-----------------|
|--------------88-|
|-8p0-7p0-5p0--88-|
|--------------88-|

pre chorus- i know you'll never learn....
  |---------------------------------------|
  |---------------------------------------|
  |---------------------------------------|
  |--888888888888888-5--8888888888888888--|
  |--888888888888888-5--8888888888888888--|
  |--888888888888888-5--8888888888888888--|

  |---------------------------------------|
  |---------------------------------------|
  |---------------------------------------|
  |--888888888888888-5--8888888877777777--|
  |--888888888888888-5--8888888877777777--|
  |--888888888888888-5--8888888877777777--|

  Chorus-Guitar 1
  |---------------------------------------------------|
  |--------------------------(10s)--------------------|
  |---------------------------------------------------|
  |--00000000-33333333-1010101010101010-888888888-----| 2x
  |--00000000-33333333-1010101010101010-888888888-----|
  |--00000000-33333333-1010101010101010-888888888-----|

Chorus-Guitar 2(arpeggios for these chords)
  |--Cm------Eb--------Bb--------------Gm---------|  2x

verse2-guitar 1
 |----------------------------------------------------------|
 |----------------------------------------------------------|
 |----------------------------------------------------------|
 |--00-----------------------00-----------888----555--00----| 2x
 |--00-----------------------00-----------888----555--00----|
 |--00-----------------------00-----------888----555--00----|
PM   ..                                                        ..                        
                               ..

verse2-guitar 2
 |----------------------------------------------------------|
 |----------------------------------------------------------|
 |----------------------------------------------------------| 2x
 |----------------------------------------------------------|
 |12121212121212121212121212-131313131313131313131313131313-|
 |----------------------------------------------------------|

part 2 of verse-guitar 1
|-----------------------------|-------------------------------|
|-----------------------------|-------------------------------|
|-----------------------------|-------------------------------|
|------------88-------------88|----------------------------88-| 2x
|8p0-7p0-5p0-88-8p0-7p0-5p0-88|-8p0-7p0-5p0-88-8p0-7p0-5p0-88-|
|------------88-------------88|----------------------------88-|

part 2 of verse-guitar 2
|-----------------------------|-------------------------------------|
|-----------------------------|-------------------------------------|
|-----------------------------|-------------------------------------|
|---------(12s)----------------|---------(13s)----------------------| 2x
|-12121212121212121212121212--|-131313131313131313131313131313------|
|-----------------------------|-------------------------------------|

interlude- guitar 1
 |----------------------------------------------|
 |----------------------------------------------|
 |----------------------------------------------|
 |---------------------3h5----------------3h5---| 4x
 |-----------------3h5----------------3h5-------|
 |-000000000000000--------000000000000----------|
PM. . . . . . . . . . . . . . .                    . . . . . . . . . . . .

then....
|----------------------------------------------------------------------------------------------|
|----------------------------------------------------------------------------------------------|
|-77777777-1414141414141414-1717171717171717-1414141414141414----------------------------------|
|-xxxxxxxx-  x  x  x  x  x   x  x  x --x  x   x  x  x   x   x  x    x  x   x   x  x  x   x  x--| 2x
|-55555555-1212121212121212-1515151515151515-1212121212121212----------------------------------|
|----------------------------------------------------------------------------------------------|


outro-guitar 1
|-------------------------------------|
|-------------------------------------|
|-------------------------------------|
|-------------------------------------|
|-------------------------------------|
|--00--------00--------00---------00--|

 outro-guitar 2 (arpeggios for these chords)
 |--Cm-------Eb--------Bb--------Gm---|


order:
verse 1
verse 1 part 2
pre chorus
chorus
verse 2
verse 2 part 2
pre chorus
chorus
interlude
then
pre chorus
chorus
outro

            
            
Suggest correction
Creating personal tab
Creating personal tab
You can edit any tab online and save it as your Personal.

You can edit, replace or remove any tab part or add personal notes – all changes will be seen only by you.

Personal tabs can be accessed anytime from any device, even offline.
Learn more »
Give kudos to tab author, rate the tab!
1 2 3 4 5
comments
print report bad tab
6 comments total. Showing first comments.
0 reply
Sam Rulez D00d 938 Jul 02, 2009 11:36 AM

i think the intro is:

|-------------------------|
|-------------------------|
|-------------------------|
|-00----00----------------|
|-00----00----77777-44444-|
|-00----00----88888-55555-|
.... ....


and the interlude is:
|----------------------|
|----------------------|
|----------------------|
|-------------------6--|
|-0000000000000----5---|
|-0000000000000-6p0----|
.............

+1 reply
Oliviaaa411 10 Jul 31, 2009 10:14 PM

Pretty spot on, but Sam Rulez D00d has the interlude right.

0 reply
Sam Rulez D00d 938 Aug 06, 2009 11:16 AM

looking back at your tab, i dont think the chorus lead is just arrpegios. i cant figure it out tho. and i have a few more corrections:

the prechorus guitar 2 is:

|-000000000000----0000-0------------|
|-666666666666----6666-6------------|
|-777777777777----7777-7------------|
|-------------8030-------0----------|
|-------------8030-------0-00000000-|
|-------------8030-------0-00000000-|
........
|-00000000000-----0000-0-------------|
|-66666666666-----6666-6-------------|
|-77777777777-----7777-7-------------|
|------------08030-----------2-3p2-3-|
|------------08030-------0-3---------|
|------------08030-------------------|


and the prechorus guitar 1 is the same except with 888xxx power chords instead of xxx760 and with 777xxx instead of the lead.

and the verse 2 guitar 2 part is octaves.

and the verse lead is:
|--------------------------------------------------------------|
|--------------------------------------------------------------|
|--------------------------------------------------------------|
|--------------------------------------------------------------|
|---5h8---7-----5h8---7--77777-----5h8---7-----5/77777---44444-|
|-0-----0---8p0-----0---888888---0-----0---8p0---88888---55555-|
.... .... ....


im 100% sure about these corrections. and the other ones too (lol).
anyways...
mad props for putting this tab up! peace.

guest
You may want to rate the tab now too:
select rating
Wanna post a correction for this tab? Suggest correction