Oops, an error
Loading. Please wait.

Reach Bass Tab

version 2
version 2

Whole song

Interactive

471 views 3 this week
1 commentread comment
1 2 3 4 5
please rate
add to favorites
launch autoscroll
font size
0
reset
guitar tuner
Autoscroll
slow
fast
+/-
esc
set tempo
stop
Help us to improve Ultimate-Guitar.com Take our survey!
×
Author
Difficulty
novice
Okay, so the tab for this song, that is already up, is not completely accurate. I hope 
this helps out. I know that the choruses are a little strange when you look at the tab 
but listen to the music carefully. You'll hear it.

Tuning: DADG

Intro

G|-------------------------------------------------------------------------|
D|-------------------------------------------------------------------------|
A|2~------------------------0-00-00-01*------------------------------------|
D|--------5~-------0~------------------------------------------------------|

Repeat(2x)
G|-------------------------------------------------------------------------|
D|--------22-244-400-000-077-755-500-000-0000-022-222-2--------------------|
A|22-222-2---------------------------------------------0000000011111111----|
D|-------------------------------------------------------------------------|

Verse 1

Repeat(2x)
G|-------------------------------------------------------------------------|
D|-------------------------------------------------------------------------|
A|----------------------------------22222-2-2-2-2222-22222-2-2-2-2222------|
D|55555-5-5-5-5555-55555-5-5-5-5555----------------------------------------|

G|-------------------------------------------------------------------------|
D|-------------------------------------------------------------------------|
A|----------------2222222222222222----------------2222222222222222---------|
D|5555555555555555----------------5555555555555555-------------------------|

Chorus 1

Repeat(2x)
G|-------------------------------------------------------------------------|
D|--------22-244-400-000-077-755-500-000-0000-022-222-2--------------------|
A|22-222-2---------------------------------------------0000000011111111----|
D|-------------------------------------------------------------------------|

Verse 2

Repeat(2x)
G|-------------------------------------------------------------------------|
D|-------------------------------------------------------------------------|
A|----------------------------------22222-2-2-2-2222-22222-2-2-2-2222------|
D|55555-5-5-5-5555-55555-5-5-5-5555----------------------------------------|

G|-------------------------------------------------------------------------|
D|-------------------------------------------------------------------------|
A|----------------2222222222222222----------------2222222222222222---------|
D|5555555555555555----------------5555555555555555-------------------------|

Chorus 2


Repeat(2x)
G|-------------------------------------------------------------------------|
D|--------22-244-400-000-077-755-500-000-0000-022-222-2--------------------|
A|22-222-2---------------------------------------------0000000011111111----|
D|-------------------------------------------------------------------------|

Outro

Repeat(2x)                                                         End
G|-----------------------------------------------------------------|-------|
D|-----------------------------------------------------------------|-------|
A|--------------------------2222-2-2~----2222-2-2~-----------------|2~-----|
D|5555-5-5~----5555-5-5~-------------------------------------------|-------|

Bridge

No bass during the piano in the bridge. Come in when the drums and guitar come in.

Repeat(2x)
G|-------------------------------------------------------------------------|
D|-------------------------------------------------------------------------|
A|22222222222222225555555555555555----------------0000000000000000---------|
D|--------------------------------5555555555555555-------------------------|

Outro

Repeat(2x)
G|-------------------------------------------------------------------------|
D|-------------------------------------------------------------------------|
A|2222222222222222--------------------------------0000000000000000---------|
D|----------------00000000000000005555555555555555-------------------------|

End
G|------|
D|------|
A|------|
D|5~----|


Thanks everyone! I hope you like it. If you have any questions please do not hesitate to 
ask. travis_whitcomb2578@yahoo.com.
Suggest correction
Give kudos to tab author, rate the tab!
1 2 3 4 5
comments
print report bad tab
1 comment total.
0 reply
n0r3mac 32 wrote on April 8 2014, 07:05 pm

This tab is WAY better than the other one posted, and idk why the other one has a higher rating. There's only a couple things I noticed

I don't hear this part in the verse,I think the first part just repeats 4x
G|---------------------------------------------------------------------|
D|---------------------------------------------------------------------|
A|----------------2222222222222222----------------2222222222222222-----|
D|5555555555555555----------------5555555555555555---------------------|

And then after the bridge it sounds like the bass part just plays this, and I believe it repeats 3x and not 2x
G--------------------------------|
D--------------------------------|
A-22--22--55--55---------00--00--|
D----------------55--55----------|

But these are very minor differences and the tab plays fine either way, definitely blows the other version out of the water. Thanks for posting!

guest
You may want to rate the tab now too:
select rating
Wanna post a correction for this tab? Suggest correction