Oops, an error
Loading. Please wait.

The World Outside tab

7,431 views 3 this week
1 commentread comment
1 2 3 4 5
1 last vote to show rating
add to favorites
×
Save as Personal and add changes to this tab that will be seen only by you. Learn more ›
×
You can save this tab as Personal to edit and correct it or add notes. All changes will be seen only by you. Learn more »
launch autoscroll
font size
0
reset
how to read this tab
guitar tuner
edit
Autoscroll
slow
fast
+/-
esc
set tempo
stop
Mabuhay ang mga PINOY!

Song - The World Outside
Artist - Eyes Set To Kill
Album - The World Outside
Year - 2009

http://www.facebook.com/timisgonnarockurworld
http://www.myspace.com/timlloyd35
http://twitter.com/timrockss

READ IT FIRST!!!

This tab is done by ear. Not a perfect tab, maybe 90% or 95%. Enjoy it! Here's my 
cover at YouTube http://www.youtube.com/watch?v=JjixTE0I9cM

Tuning - Drop D (DADGBE)

Legend:
"G1" - Guitar 1
"G2" - Guitar 2
"h" - Hammer
"p" - Pull-off
"*" - Palm mute
"x" - Dead string


Here's the song. Enjoy! GOD bless!

INTRO (0:00 - 0:25)
E|----------------|
B|----------------|
G|----------------|
D|--9--5--2-------|
A|--9--5--2-------|
D|--9--5--2-------| (x2)

(0:25 - 0:43)
E|-------------------------------|
B|-------------------------------|
G|-------------------------------|
D|--99999999999555555555522222222|
A|--99999999999555555555522222222|
D|--99999999999555555555522222222| (x2)
    *****************************
=================================================================================================

CHORUS (0:43 - 1:02)
G1
E|-------------------------|
B|-------------------------|
G|-------------------------|
D|--555555555-999999-000000|
A|--555555555-999999-000000|
D|--555555555-999999-000000| (x2)

G2 (0:43 - 1:03)
E|----------------------------------------------15--15--14--|
B|------------------------------------------15--------------|
G|-----------------11h12p11h12p11h12----1616--16--16--16----|
D|------12h14p12h14-----------------------------------------|
A|-12h14----------------------------------------------------|
D|---------------------------------(x2)-----------------(x2)| (x2)

Last part
G2
E|----------15--15--14--|
B|------15------------12|
G|--1616--16--16--16----|
D|----------------------|
A|----------------------|
D|----------------------|

=================================================================================================

VERSE (1:03 - 1:37)
E|-------------------------------|
B|-------------------------------|
G|-------------------------------|
D|--99999999999555555555522222222|
A|--99999999999555555555522222222|
D|--99999999999555555555522222222| (x4)
    *****************************

G2 (1:21 - 1:37)
E|-----------------|
B|-----------------|
G|-----------------|
D|-----------------|
A|--99-9-9-9-9-9h10|
D|-----------------| (x2)

=================================================================================================

CHORUS (1:37 - 2:00)
G1                              | Last part      |
E|------------------------------|----------------|
B|------------------------------|----------------|
G|------------------------------|----------------|
D|--555555555-999999-000000-----|-5--------------|
A|--555555555-999999-000000-----|-5--------------|
D|--555555555-999999-000000-(x2)|-5-(fade out...)|

G2 (1:37 - 2:00)
E|----------------------------------------------15--15--14--|
B|------------------------------------------15--------------|
G|-----------------11h12p11h12p11h12----1616--16--16--16----|
D|------12h14p12h14-----------------------------------------|
A|-12h14----------------------------------------------------|
D|---------------------------------(x2)-----------------(x2)| (x2)

=================================================================================================

BRIDGE (2:26 - 2:34)
E|---------------------------------------------------|
B|---------------------------------------------------|
G|--11111111-12121212121212-14141414141414-999-121212|
D|--xxxxxxxx-xxxxxxxxxxxxxx-xxxxxxxxxxxxxx-xxx-xxxxxx|
A|---9999999-10101010101010-12121212121212-777-101010|
D|---------------------------------------------------|

(2:34 - 2:43)
E|---------------------------------------------------|
B|---------------------------------------------------|
G|--11111111-12121212121212-14141414141414-1515151515|
D|--xxxxxxxx-xxxxxxxxxxxxxx-xxxxxxxxxxxxxx-xxxxxxxxxx|
A|---9999999-10101010101010-12121212121212-1313131313|
D|---------------------------------------------------|

=================================================================================================

CHORUS (2:43 - 2:52)
E|------------------|
B|------------------|
G|------------------|
D|--5--999999-000000|
A|--5--999999-000000|
D|--5--999999-000000|


G1 (2:52 - 3:36)                | Last part      |
E|------------------------------|----------------|
B|------------------------------|----------------|
G|------------------------------|----------------|
D|--555555555-999999-000000-----|-5--------------|
A|--555555555-999999-000000-----|-5--------------|
D|--555555555-999999-000000-(x5)|-5-(fade out...)|

G2 (3:00 - 3:36)
E|----------------------------------------------15--15--14--|
B|------------------------------------------15--------------|
G|-----------------11h12p11h12p11h12----1616--16--16--16----|
D|------12h14p12h14-----------------------------------------|
A|-12h14----------------------------------------------------|
D|---------------------------------(x2)-----------------(x2)| (x4)

G2 (3:36 - 3:46)
E|----------15--15--14--|
B|------15--------------|
G|--1616--16--16--16----|
D|----------------------|
A|----------------------|
D|----------------------| (x2, last part fade out)

END... =))

Thanks for dropping by! =))
-tim.

            
            
Suggest correction
Creating personal tab
Creating personal tab
You can edit any tab online and save it as your Personal.

You can edit, replace or remove any tab part or add personal notes – all changes will be seen only by you.

Personal tabs can be accessed anytime from any device, even offline.
Learn more »
Give kudos to tab author, rate the tab!
1 2 3 4 5
comments
print report bad tab
1 comment total.
0 reply
Sam Rulez D00d 938 Dec 22, 2009 01:08 PM

the chorus lead is this i think:
|-----------------------------------10----15--15--14--------|
|-----------------------------12--12----12--12--12----------|
|-7p04/6p04/11p011p011p0-(x2)---11----11------------11-(x2)-|
|-----------------------------------------------------------|
|-----------------------------------------------------------|
|-----------------------------------------------------------|

guest
You may want to rate the tab now too:
select rating
Wanna post a correction for this tab? Suggest correction