Oops, an error
Loading. Please wait.

Walang Iba tab

version 5
version 5

Whole song

3,254 views 66 this week
no commentswrite comment
1 2 3 4 5
2 more votes to show rating
add to favorites
×
Save as Personal and add changes to this tab that will be seen only by you. Learn more ›
×
You can save this tab as Personal to edit and correct it or add notes. All changes will be seen only by you. Learn more »
launch autoscroll
font size
0
reset
how to read this tab
guitar tuner
edit
Autoscroll
slow
fast
+/-
esc
set tempo
stop
Author
Difficulty
intermediate
About this tab version
This is high quality fingerstyle tab and I have supporting video tutorial as shown in the youtube link. Was this info helpful? Yes No
Walang Iba by Ezra Band  (incomplete)

Tabs written and arranged by Edwin-E (in YouTube)
Blog: http://guitarplucking.blogspot.com
Facebook Page: EGuitar

Video Tutorial:  http://www.youtube.com/watch?v=b_qxqeqkrUY

[Intro]
E|-------------------------|
B|-------------------3-----|
G|--------0-----0h2-----2--|
D|-----0-----0-------------|
A|-------------------------|
E|--3----------------------|

E|----------------------------|
B|-----------3----------3-----|
G|--------0-----0--0h2-----2--|
D|----------------------------|
A|-----2----------------------|
E|--3-------------------------|

E|----------------------------|
B|----------------------3-----|
G|-----------0-----0h2-----2--|
D|--------2-----2-------------|
A|--2--3----------------------|
E|----------------------------|

E|------------------------|
B|--------3-------0h2-----|
G|-----2-----0h2-------2--|
D|--0---------------------|
A|------------------------|
E|------------------------|

G - Bm - C - D

I.
E|----------------------------------------2--|
B|-----------------0--3--3--3/5--------------|
G|-----------0--0----------------4--4--------|
D|--------0----------------------------4-----|
A|-----2-------------------------2-----------|
E|--3----------------------------------------|
G                     Bm
 Ilang beses nang nag-away

E|--------------------|
B|--------1--0--------|
G|--4--4--------0--0--|
D|--------2-----------|
A|--------3-----------|
E|--------------------|
              C
 Hanggang sa magkasakitan

E|-----------------------2--|
B|--------0--------------3--|
G|-----------2--2--0--2--2--|
D|--2--2--0--------------0--|
A|--------------------------|
E|--------------------------|
         D
 Di na alam ang pinagmulan

II.
E|----------------------------------------2--|
B|-----------------0--3--3--3/5--------------|
G|-----------0--0----------------4--4--------|
D|--------0----------------------------4-----|
A|-----2-------------------------2-----------|
E|--3----------------------------------------|
G                 Bm
 Pati maliliit na bagay

E|--------------------|
B|--------1--0--------|
G|--4--4--------0--0--|
D|--------2-----------|
A|--------3-----------|
E|--------------------|
       C
 Na napag-uusapan

E|-----------------------2--|
B|--------0--------------3--|
G|-----------2--2--0--2--2--|
D|--2--2--0--------------0--|
A|--------------------------|
E|--------------------------|
           D
 Bigla na lang pinag-aawayan

[Refrain]
E|--------0-----0-----0-----0--------------2--|
B|-----0-----------1-----1-----3--------3-----|
G|--2--------------------------------4--------|
D|-----------2--------------------4-----------|
A|--------0--------------------2--------------|
E|--------------------------------------------|
        Am7          Bm
 Ngunit kahit na ganito

E|--------------0-----0--------0--------------2--|
B|--------2--------1-----1--1-----3--------3--3--|
G|--4--4--------------------------------4-----4--|
D|-----------2-----------------------4--------4--|
A|--------0-----------------------2-----------2--|
E|-----------------------------------------------|
      Am7                   Bm
 Madalas na di tayo magkasundo

E|--------------------------------------------------2--|
B|--0--3--1-----------------0--1--0-----0-----3-----3--|
G|-----------0--0--2--0--2-----------0-----2-----2--2--|
D|-----------------------------------------0-----------|
A|--------0--------2--------3--------------------------|
E|-----------------------------------------------------|
      Am7             Bm      C                     D
 Ikaw lang ang gusto kong makapiling sa buong buhay ko


[Chorus 1]
E|--------------------------------------|
B|--------0--0--0-----0--0--0--0-----0--|
G|--0--2-----------2--------------2-----|
D|--------------------------------------|
A|--------------------------------------|
E|--------3--------------0--------------|
       G              Bm
 Kahit na binabato mo ako ng kung anu-ano

E|------------------------|
B|--0--0--0--1--0---------|
G|-----------------2--2---|
D|--------------0---------|
A|--3---------------------|
E|------------------------|
   C              D
 Ikaw pa rin ang gusto ko

E|--------------------------------------|
B|--------0--0--0-----0--0--0--0-----0--|
G|--0--2-----------2--------------2-----|
D|--------------------------------------|
A|--------------------------------------|
E|--------3--------------0--------------|
       G                 Bm
 Kahit na sinasampal mo ako't sinisipa

E|-----------------|
B|--0--0--0--1-----|
G|--------------2--|
D|--------------0--|
A|--3--------------|
E|-----------------|
    C        D
 Nasusugatan mo

E|-----------------------------------0--|
B|-----------------0-----------------1--|
G|--2--0--0-----0-----2-----0-----0--0--|
D|-----------2-----------4-----2-----2--|
A|--------0-----------2-----3--------3--|
E|--------------------------------------|
        Am7     Bm   C
Ikaw pa rin, walang iba

E|-----------0--------------------2--|
B|-----------1--0--------3--------3--|
G|-----0-----0-----2--0--------0--2--|
D|--2-----2-----------------2-----0--|
A|-----0-----------2-----3-----------|
E|-----------------------------------|
          Am7    Bm   C D
Ang gusto kong makasama

E|-----------------------3--|
B|-----------------------0--|
G|--0--2--0--0--------0--0--|
D|-----------------0-----0--|
A|--------------2--------2--|
E|-----------3-----------3--|
        G
Walang iba

************************************

| h  Hammer-on
| /  Slide up

************************************

            
            
Suggest correction
Creating personal tab
Creating personal tab
You can edit any tab online and save it as your Personal.

You can edit, replace or remove any tab part or add personal notes – all changes will be seen only by you.

Personal tabs can be accessed anytime from any device, even offline.
Learn more »
Give kudos to tab author, rate the tab!
1 2 3 4 5
comments
print report bad tab
guest
You may want to rate the tab now too:
select rating
Wanna post a correction for this tab? Suggest correction