Oops, an error
Loading. Please wait.

Wobbly Tab

232 views 9 this week
no commentswrite comment
1 2 3 4 5
2 more votes to show rating
add to favorites
launch autoscroll
font size
0
reset
how to read this tab
guitar tuner
×
Best way to learn
"Wobbly"
Autoscroll
slow
fast
+/-
esc
set tempo
stop
Author
Difficulty
  follow
novice
About this tab version
Tab based on Ezra's live performance. No capo needed and standard tuning. Was this info helpful? Yes No
Wobbly - By Ezra Furman
All rights to the song and lyrics go to Ezra Furman - my first tab, hope it's ok! 


[intro]

e|-8\0-0-3----|-8\0-0-3-----|-8\0-0-3---|-8\0-0-3-----0-3---|----------------|-4/5-5-5-5-5-5p3p0-0-------|
B|---------1--|--------1-1--|--------1--|--------1-3-----1--|----1---3p1---1-|-4/5-----------------3-1-1-|
G|------------|-------------|-----------|-------------------|-2---2------2---|-4/5-----------------------|
D|------------|-------------|-----------|-------------------|----------------|---------------------------|
A|------------|-------------|-----------|-------------------|----------------|---------------------------|
E|------------|-------------|-----------|-------------------|----------------|---------------------------|


e|-8\0-0-3-------------|-------------3---------3---3---|---------------3-3-3-3-3-3-3-3-3-3-3-3-3-3-3-3-|
B|---------1-1-1-1-1-1-|-3-3-3-3-3/5---5-3-3-3---3---3-|---1--3p1---1--3-3-3-3-3-3-3-3-3-3-3-3-3-3-3-3-|
G|---------------------|-------------------------------|-2---2----2----2-2-2-2-2-2-2-2-2-2-2-2-2-2-2-2-|
D|---------------------|-------------------------------|---------------0-0-0-0-0-0-0-0-0-0-0-0-0-0-0-0-|
A|---------------------|-------------------------------|-----------------------------------------------|
E|---------------------|-------------------------------|-----------------------------------------------|



[Verse] -  repeat twice with a 4 second pause in the middle. You can use barre chords, but I think triplets 
sound smoother

            C                     C                     F                     C
e|-3-3-s-x-3-3-5-3-----|-3-3-x-3-3-3-5-3-----|-1-1-x-1-1-1-1-1-1-1-|-3-3-x-3-3-3-5-3----|
B|-5-5-s-x-5-5-----5-3-|-5-5-x-5-5-5-----5-3-|-1-1-x-1-1-1-1-1-1-1-|-5-5-x-5-5-5----5-3-|
G|-5-5-s-x-5-5---------|-5-5-x-5-5-5---------|-2-2-x-2-2-2-2-2-2-2-|-5-5-x-5-5-5--------|
D|-----s-x-------------|-----x---------------|-----x---------------|-----x--------------|
A|---------------------|---------------------|---------------------|--------------------|
E|---------------------|---------------------|---------------------|--------------------|

            Dm                    Dm                    C               C
e|-1-1-x-1-1-1-5-3-----|-1-1-x-1-1-1-5-3-----|-3-3-x-3-3-3-5-3-----|-3-3-x-3-|   I have a feeling that this 
B|-3-3-x-3-3-3-----5-3-|-3-3-x-3-3-3-----5-3-|-5-5-x-3-3-3-----5-3-|-5-5-x-5-|   line is a bit off. If you 
G|-2-2-x-2-2-2---------|-2-2-x-3-3-3---------|-5-5-x-3-3-3---------|-5-5-x-5-|   know a better way, make sure 
D|-----x---------------|-----x---------------|-----x---------------|-----x---|   to leave it in the comments
A|---------------------|---------------------|---------------------|---------|   below!!!
E|---------------------|---------------------|---------------------|---------|
                                                                                


************************************

| x   Dead note
| h   Hammer-on
| p   Pull-off
| /   Slide up
| \   Slide down

************************************
Suggest correction
Give kudos to tab author, rate the tab!
1 2 3 4 5
comments
print report bad tab
guest
You may want to rate the tab now too:
select rating
Wanna post a correction for this tab? Suggest correction