Oops, an error
Loading. Please wait.

I Killed Myself But I Didnt Die Chords

862 views 4 this week
2 commentsread comments
1 2 3 4 5
please rate
add to favorites
launch autoscroll
font size
0
reset
transpose
0
reset
display chords
guitar tuner
Tab Pro tools
  • play this tab
  • loop segment
  • change instrument
  • show fretboard
  • metronome
×
Best way to learn
"I Killed Myself But I Didnt Die"
Autoscroll
slow
fast
+/-
esc
set tempo
stop
Difficulty
intermediate
Bass Intro:
G|-------------------------------------|
D|-------------------------------------|
A|-------------------------------------|
E|-00000000-99999999-55555555-88888888-|

Intro Riff (guitar):
E|---------------------------------------------------------------|
B|---------------------------------------------------------------|
G|---------------------------------------------------------------|
D|----9--6--4----9--9-6-6-4-4------9--6--4-----------------------|
A|-7-----------7----------------7------------7---7-7-7-7/13/6----|
E|---------------------------------------------------------------|


I killed myself but I didn't die
she crossed her heart and stuck a needle in her eye
she promised me she'll never leave me alone
she doesn't sleep she only calls me on the phone all night

Intro Riff (x1)

E                    C#            
I went to school but I didn't learn

A                      C
I touch the fire but I didn't feel the burn

E                    C#           
somehow I got desensitized to the world

A                      C
 I hate pop music and I hate the Duke of Earl

Intro Riff (x1)

E                   C#
I killed myself but I didn't die

A                   C
now in the hospital recovering I lie

E                   C#
none of the visitors can look me in the eye

A                   C
they say "how are ya?" but they don't apologize, oh no


Intro Riff (x1) 

 
and my mom came in she was having trouble trying to speak

she could see that her boy was some sort of freak

E|-----------------|
B|-----------------|
G|-/13-13-13-13----|
D|-----------------|
A|-----------------|
E|-----------------|

E                   C#
I killed myself but I didn't die

A                       C
now she's my baby she's the apple of my eye

E                C#
she only wants a sensitive guy

A                     C
and I've been in and out of my mind three times

Intro Riff (x1)

thats just the way, the way I always was
I go to therapy but I don't take the drugs
I try and really look my life in the face
I think I'm learning that there's no way to escape, oh no

Intro Riff (x1) 

and the worst part is that I didn't even really care
it's just to be or not to be and either way I'm only barely there

E|-----------------|
B|-----------------|
G|-/13-13-13-13----|
D|-----------------|
A|-----------------|
E|-----------------|


E                   C#
I killed myself but I'm still around

A                       C
I think the living dead will like me better now

E                    C#
I'm gonna socialize I'm gonna go out more

A                     C
I'll be so beautiful with nothing at the core, oh no

Outro Riff(x4):

E|-----------------------------|
B|-----------------------------|
G|-12(x8)-14(x8)-13(x8)-12(x8)-|
D|-----------------------------|
A|-----------------------------|
E|-----------------------------|

E chord at end
comments
We did not receive enough feedback on this tab! Please rate:
print report bad tab
1 2 3 4 5
2 comments total.
0 reply
solidskateboard wrote on January 2 2013, 03:11 pm

Bass Intro:
G|-------------------------------------|
D|-------------------------------------|
A|----------44444444-00000000-33333333-|
E|-00000000----------------------------|

Intro Riff (guitar):
E|---------------------------------------------------------------|
B|---------------------------------------------------------------|
G|-4-1-----4-4-11-------4-1--------------------------------------|
D|-----4-2--------44-22-----4-2-2-1-2/6-1-2*---------------------|
A|---------------------------------------------------------------|
E|---------------------------------------------------------------|

Ezra just plays open e on the little e-string every so often under main riff

I killed myself but I didn't die
she crossed her heart and stuck a needle in her eye
she promised me she'll never leave me alone
she doesn't sleep she only calls me on the phone all night

Intro Riff (x1)

E C#
I went to school but I didn't learn

A Am
I touch the fire but I didn't feel the burn

E C#
somehow I got desensitized to the world

A Am
I hate pop music and I hate the Duke of Earl

Intro Riff (x1)

E C#
I killed myself but I didn't die

A Am
now in the hospital recovering I lie

E C#
none of the visitors can look me in the eye

A Am
they say "how are ya?" but they don't apologize, oh no

Intro Riff (x1)

Bridge:
B A E (bass plays 2 on A)
and my mom came in she was having trouble trying to speak
B A B
she could see that her boy was some sort of freak

*From what I remember I believed the Harpoons played it like this*
E|---------------------------------|
B|-9---9---9---9---9---9---9---9---|
G|-11^-11^-11^-11^-11^-11^-11^-11^-|
D|---------------------------------|
A|---------------------------------|
E|---------------------------------|
*But my guitar is outta of tune so probably move it up one frett*

E C#
I killed myself but I didn't die

A Am
now she's my baby she's the apple of my eye

E C#
she only wants a sensitive guy

A Am
and I've been in and out of my mind three times

Intro Riff (x1)

thats just the way, the way I always was
I go to therapy but I don't take the drugs
I try and really look my life in the face
I think I'm learning that there's no way to escape, oh no

Intro Riff (x1)

Bridge:
B A E
and the worst part is that I didn't even really care

B A B
it's just to be or not to be and either way I'm only barely there

*From what I remember I believed the Harpoons played it like this*
E|---------------------------------|
B|-9---9---9---9---9---9---9---9---|
G|-11^-11^-11^-11^-11^-11^-11^-11^-|
D|---------------------------------|
A|---------------------------------|
E|---------------------------------|
*But my guitar is outta of tune so probably move it up one frett*

E C#
I killed myself but I'm still around

A Am
I think the living dead will like me better now

E C#
I'm gonna socialize I'm gonna go out more

A Am
I'll be so beautiful with nothing at the core, oh no

And at some point you take the main riff but do octave power chord like this
E|----------------------------------------------------------------------|
B|----------------------------------------------------------------------|
G|-16--13--11-9--16--16--13--13-11-11--9--9--16--13--11-9--9-8-9/13-8-9-|
D|---------------------------MUTE THIS STRING---------------------------|
A|-14--11--9--7--14--14--11--11--9--9--7--7--14--11--9--7--7-6-7/11-6-7-|
E|----------------------------------------------------------------------|

But the new guitarist plays it differently from the Harpoons but same notes

Outro Riff(x4):

E|-----------------------------|
B|-----------------------------|
G|-12(x8)-14(x8)-13(x8)-12(x8)-|
D|-----------------------------|
A|-----------------------------|
E|-----------------------------|

E chord at end

0 reply
solidskateboard wrote on January 2 2013, 03:15 pm

Just change the font to Courier New

I want to post or [tab]
guest
You may want to rate the tab now too:
select rating
Please do not post tabs as comments. Select "correction" instead!