Oops, an error
Loading. Please wait.
2,818 views 3 this week
no commentswrite comment
1 2 3 4 5
x 3
add to favorites
×
Save as Personal and add changes to this tab that will be seen only by you. Learn more ›
×
You can save this tab as Personal to edit and correct it or add notes. All changes will be seen only by you. Learn more »
launch autoscroll
font size
0
reset
how to read this tab
guitar tuner
edit
Autoscroll
slow
fast
+/-
esc
set tempo
stop
Artist: Ezra Furman
  song: My Zero

https://www.youtube.com/watch?v=ysPnz5yl_z8

Tuning: Tune down one semitone

E --> Eb
B --> Bb
G --> Gb
D --> Db
A --> Ab
E --> Eb

Chords used:

Chord   EADGBe (string)
A      (x02220)
Em     (022000)
G      (320033)
D      (xx0232)


   A                 Em                G                 D               
e|-0---0-0---0-0-0-|-0---0-0---0-0-0-|-3---3-3---3-3-3-|-2---2-2---2-2-2-|
B|-2---2-2---2-2-2-|-0---0-0---0-0-0-|-3---3-3---3-3-3-|-3---3-3---3-3-3-|
G|-2---2-2---2-2-2-|-0---0-0---0-0-0-|-0---0-0---0-0-0-|-2---2-2---2-2-2-|
D|-2---2-2---2-2-2-|-2---2-2---2-2-2-|-0---0-0---0-0-0-|-0---0-0---0-0-0-|
A|-0---0-0---0-0-0-|-2---2-2---2-2-2-|-2---2-2---2-2-2-|-x---x-x---x-x-x-|
E|-x---x-x---x-x-x-|-0---0-0---0-0-0-|-3---3-3---3-3-3-|-x---x-x---x-x-x-|

   D   D U   U D U   D   D U   U D U   D   D U   U D U   D   D U   U D U 

Repeat these chords through the whole song.
 
(Riff)
                                   
e|------0-0-2-2-0-0-----------------|-----------0-0---------------------|
B|--3-3-------------3-3-0-3---------|--0-0-3-3------3-3-0-0-------------|
G|----------------------------------|-----------------------2-----------|
D|----------------------------------|-----------------------------------|
A|----------------------------------|-----------------------------------|
E|----------------------------------|-----------------------------------|

"I thought you'd always be...my zero. My zero."



Alternative Version:

You can play this song in normal tuning but it does require bar chords.

Tuning: Normal

Chords used:

Chord   EADGBe (string)
Ab     (466544)
Ebm    (x68876)
Gb     (244322)
Db     (x46664)

   Ab                Ebm               Gb                Db
e|-4---4-4---4-4-4-|-6---6-6---6-6-6-|-2---2-2---2-2-2-|-4---4-4---4-4-4-|
B|-4---4-4---4-4-4-|-7---7-7---7-7-7-|-2---2-2---2-2-2-|-6---6-6---6-6-6-|
G|-5---5-5---5-5-5-|-8---8-8---8-8-8-|-3---3-3---3-3-3-|-6---6-6---6-6-6-|
D|-6---6-6---6-6-6-|-8---8-8---8-8-8-|-4---4-4---4-4-4-|-6---6-6---6-6-6-|
A|-6---6-6---6-6-6-|-6---6-6---6-6-6-|-4---4-4---4-4-4-|-4---4-4---4-4-4-|
E|-4---4-4---4-4-4-|-x---x-x---x-x-x-|-2---2-2---2-2-2-|-x---x-x---x-x-x-|

   D   D U   U D U   D   D U   U D U   D   D U   U D U   D   D U   U D U 

(Riff)
                                   
e|-----------------------------------------------------------------------|
B|-----------------------------------------------------------------------|
G|----------8---8---10--10--8---8----------------------------------------|
D|--11--11--------------------------11--11--8---11-----------------------|
A|-----------------------------------------------------------------------|
E|-----------------------------------------------------------------------|


e|-----------------------------------------------------------------------|
B|-----------------------------------------------------------------------|
G|------------------8---8------------------------------------------------|
D|--8---8---11--11----------11--11--8---8--------------------------------|
A|------------------------------------------11---------------------------|
E|-----------------------------------------------------------------------|

            
            
Suggest correction
Creating personal tab
Creating personal tab
You can edit any tab online and save it as your Personal.

You can edit, replace or remove any tab part or add personal notes – all changes will be seen only by you.

Personal tabs can be accessed anytime from any device, even offline.
Learn more »
Give kudos to tab author, rate the tab!
1 2 3 4 5
comments
print report bad tab
guest
You may want to rate the tab now too:
select rating
Wanna post a correction for this tab? Suggest correction