Oops, an error
Loading. Please wait.

Take Off You Sunglasses Bass Tab

818 views 3 this week
no commentswrite comment
1 2 3 4 5
excellent!
x 1
add to favorites
launch autoscroll
font size
0
reset
guitar tuner
Tab Pro tools
  • play this tab
  • loop segment
  • change instrument
  • show fretboard
  • metronome
Autoscroll
slow
fast
+/-
esc
set tempo
stop
Contributor
Difficulty
novice
-------------------------------------------------------------------------------
			     Take Off Your Sunglasses - Ezra Furman and the Harpoons
-------------------------------------------------------------------------------

Tabbed By : Adam Kopcinski
e-mail: solarflux@planetquake.com

Tuning: standard
Key of Bb 

Chords:
verse - Gmin Eb Bb
Chorus - Gmin F Eb

Intro: 2x
G|---------------------------------------------------------------------------|
D|-------------------------8-----8----------------------=--------------------|
A|-----------6-6-------6/10--6h10-------------6-6------------8--8------------|
E|--3------3-------6-----------------3------3-------6-----6------------------|

00:14
verse: variations on these
G|---------------------------------------------------------------------------|
D|---------------------------------------------------------------------------|
A|-----------6-6------------------------------6-6----------------------------|
E|--3------3------6-----(4)/6(4)/6---3------3-------6------------2/6-(5)-----|

G|---------------------------------------------------------------------------|
D|---------------------------------------------------------------------------|
A|-----------6-6------------------------------6-6----------------------------|
E|--3------3------6----6---6--6-------------3-------6------------6-(5)-------|

00:58
G|---------------------------------------------------------------------------|
D|---------------------------------------------------------------------------|
A|-----------6-6-----------8--8---------------6-6-------------8--8-----------|
E|--3------3------6-----6-------(65)-3------3------6-------6--------(6)------|

G|---------------------------------------------------------------------------|
D|---------------------------------------------------------------------------|
A|-----------6-6-----------8--8---------------6-6----------------------------|
E|--3------3------6-----6-------(65)-3------3------6-----6---6---6-----------|

01:12
Chorus:
G|---------------------------------------------------------------------------|
D|---------------------------------------------------------------------------|
A|--10----10--8---8--6--6-6/8-8/1010--10----10--8---8--6--6-6h8-8/10-10------|
E|------11------8-------------------------11------8--------------------------|

G|---------------------------------------------------------------------------|
D|---------------------------------------------------------------------------|
A|--10----10--8---8--6--6-6h8-8-1010--10----10--8---8--6--6---6---6-8--------|
E|------11------8-------------------------11------8--------------------------|

01:27
G|---------------------------------------------------------------------------|
D|-------------------------8-----8----------------------=--------------------|
A|-----------6-6-------6/10--6h10-------------6-6------------8--8------------|
E|--3------3-------6-----------------3------3-------6-----6------------------|

01:34
variations on these:
G|---------------------------------------------------------------------------|
D|---------------------------------------------------------------------------|
A|-----------6-6-----------8--8---------------6-6------8---------------------|
E|--3------3------6-----6-------(6)--3------3------6--------(65)-------------|

G|---------------------------------------------------------------------------|
D|---------------------------------------------------------------------------|
A|-----------6-6-----------8------------------6-6----------------------------|
E|--3------3------6-----6-------(65)-3------3------6-----6---6---6-----------|

02:06
Repeat Chorus:
G|---------------------------------------------------------------------------|
D|---------------------------------------------------------------------------|
A|--10----10--8---8--6--6-6/8-8/1010--10----10--8---8--6--6-6h8-8/10-10------|
E|------11------8-------------------------11------8--------------------------|

G|---------------------------------------------------------------------------|
D|---------------------------------------------------------------------------|
A|--10----10--8---8--6--6-6h8-8-1010--10----10--8---8--6--6---6---6-8--------|
E|------11------8-------------------------11------8--------------------------|

G|---------------------------------------------------------------------------|
D|-------------------------8-----8----------------------=--------------------|
A|-----------6-6-------6/10--6h10-------------6-6------------8--8------------|
E|--3------3-------6-----------------3------3-------6-----6-------6----------|

02:28

x2
G|---------------------------------------------------------------------------|
D|---------------------------------------------------------------------------|
A|----------6-6-6---------------------------6-6-6----------------------------|
E|--3-3-3-3-------6-6-6-6-6-6-6-6-6-3-3-3-3-------6-6-6-6-6-6-6-6-6-0--------|

02:42
X2
G|---------------------------------------------------------------------------|
D|--5--5-5--3-3-3--------------------5--5-5--3-3-3---------------------------|
A|----------------6-6--6-8-8-1010-----------------6-6-6-8-8-10-10------------|
E|---------------------------------------------------------------------------|

02:57
G|---------------------------------------------------------------------------|
D|---------------------------------------------------------------------------|
A|-----------6-6------------------------------6-6----------------------------|
E|--3------3------3----------------3--------3-----3--------------------------|

3:04

G|---------------------------------------------------------------------------|
D|---------------------------------------------------------------------------|
A|--10----10--8---8--6--6-6/8-8/1010--10----10--8---8--6--6-6h8-8/10-10------|
E|------11------8-------------------------11------8--------------------------|

G|---------------------------------------------------------------------------|
D|---------------------------------------------------------------------------|
A|--10----10--8---8--6--6-6h8-8-1010--10----10--8---8--6--6---6---6-8--------|
E|------11------8-------------------------11------8--------------------------|

x2
G|---------------------------------------------------------------------------|
D|---------------------------------------------------------------------------|
A|-----------6-6------------------------------6-6----------------------------|
E|--3------3------3----------------3--------3-----3--------------------------|


| /  slide up
| \  slide down
| h  hammer-on
| p  pull-off
| ~  vibrato
| +  harmonic
| x  Mute note
| () Ghost note
===============================================================================
comments
We did not receive enough feedback on this tab! Please rate:
print report bad tab
1 2 3 4 5
I want to post or [tab]
guest
You may want to rate the tab now too:
select rating
Please do not post tabs as comments. Select "correction" instead!