Oops, an error
Loading. Please wait.

By Your Side Tab

version 1
version 1

Whole song

Interactive

11,777 views 21 this week
1 commentread comment
1 2 3 4 5
excellent!
x 4
add to favorites
launch autoscroll
font size
0
reset
how to read this tab
guitar tuner
Autoscroll
slow
fast
+/-
esc
set tempo
stop
Help us to improve Ultimate-Guitar.com Take our survey!
×
Author
Difficulty
Tuning
intermediate
D# G# C# F# A# D#
Faber Drive: By Your Side

Tabbed by me (:
This is my first tab....like ever XD
so it might not be 100% but its really close ^^
If you need help on timing watch this video: http://www.youtube.com/watch?v=j9in25ekJF0

Questions? Comments? Corrections?: chre@live.com

This is a very simple and beautiful song,
Enjoy! :D



Intro/Verse:

eb|--------------|-----------|------------|------------|------------|
Bb|-------12~----|-----10~---|------8~----|------7~----|------3~----|
Gb|---0--0--0--0-|--0-0--0-0-|--0-0---0-0-|--0-0---0-0-|--0-0---0-0-|
Db|--------------|-----------|------------|------------|------------|
Ab|-10-10----10--|-9-9----9--|-7-7-----7--|-5-5-----5--|-3-3-----3--|
Eb|--------------|-----------|------------|------------|------------|

eb|------------|------------|-------------|
Bb|------3~----|------5~----|-7~----8~----|
Gb|--0-0---0-0-|--0-0---0-0-|---0-0---0-0-|
Db|------------|------------|-------------|
Ab|-3-3-----3--|-5-5-----5--|----5-----5--|
Eb|------------|------------|-------------|


Chorus:
          G                D              Em/G          C9         D
eb|---------3-----|---------2h3----|---------3-----|----------------2h3~-|
Bb|-------3---3---|-------3-----3--|-------3---3---|-------3~------------|
Gb|-----0-------0-|-----2---------2|-----0-------0-|-----0---------------|
Db|---0-----------|---0------------|---2-----------|---2---------0-------|
Ab|---------------|-0~-------------|-2~------------|-3---------0---------|
Eb|-3~------------|----------------|---------------|---------------------|

          G                D               C9             C9         D
eb|---------3-----|---------2h3----|---------3-----|------------------2h3~-|
Bb|-------3---3---|-------3-----3--|-------3---3---|--------3~-------------|
Gb|-----0-------0-|-----2---------2|-----0-------0-|------0----------------|
Db|---0-----------|---0------------|---2-----------|----2----------0-------|
Ab|---------------|-0~-------------|-3-------------|--3----------0---------|
Eb|-3~------------|----------------|---------------|-----------------------|

          G                D              Em/G            C9
eb|---------3-----|---------2h3----|---------3-----|---------3-----|
Bb|-------3---3---|-------3-----3--|-------3---3---|-------3---3---|
Gb|-----0-------0-|-----2---------2|-----0-------0-|-----0-------2-|
Db|---0-----------|---0------------|---2-----------|---2-----------|
Ab|---------------|-0~-------------|-2~------------|-3-------------|
Eb|-3~------------|----------------|---------------|---------------|

         Dm              Dm               C              D
eb|---------1-----|---------1-----|---------0-----|---------2h3---|
Bb|-------3---3---|-------3---3---|-------1---1---|-------3-----2-|
Gb|-----2-------2-|-----2-------2-|-----0-------0-|-----2---------|
Db|---0-----------|---0-----------|---2-----------|---0-----------|
Ab|-0~------------|-0~------------|-3~------------|-0-------------|
Eb|---------------|---------------|---------------|---------------|


- Repeate Verse - 


- Repeate Chorus -


Bridge:
         Em/G             D               C9          G        G/F#
eb|---------3-----|---------2h3---|---------3-----|------------------|
Bb|-------3---3---|-------3-----2-|-------3---3---|------------------|
Gb|-----0-------0-|-----2---------|-----0-------0-|-------0--------0-|
Db|---2-----------|---0-----------|---2-----------|-----0--------0---|
Ab|-2-------------|-0-------------|-3-------------|---2--------0-----|
Eb|---------------|---------------|---------------|-3--------2-------|

         Em/G             D               C9          G        G/F#
eb|---------3-----|---------2h3---|---------3-----|------------------|
Bb|-------3---3---|-------3-----2-|-------3---3---|------------------|
Gb|-----0-------0-|-----2---------|-----0-------0-|-------0--------0-|
Db|---2-----------|---0-----------|---2-----------|-----0--------0---|
Ab|-2-------------|-0-------------|-3-------------|---2--------0-----|
Eb|---------------|---------------|---------------|-3--------2-------|

         Em/G             F                  D
eb|---------3-----|---------------|---------2h3------3~-|
Bb|-------3---3---|---------1-----|-------3-----3-------|
Gb|-----0-------0-|-------2---2---|-----2---------2-----|
Db|---2-----------|-----3-------3-|---0-----------------|
Ab|-2-------------|---3-----------|-0-------------------|
Eb|---------------|-1-------------|---------------------|


eb|--------------|-----------|------------|------------|-3~-------|
Bb|-------12~----|-----10~---|------8~----|------7~----|-3~-------|
Gb|---0--0--0--0-|--0-0--0-0-|--0-0---0-0-|--0-0---0-0-|-0~-------|
Db|--------------|-----------|------------|------------|-0~-------|
Ab|-10-10----10--|-9-9----9--|-7-7-----7--|-5-5-----5--|-3~-------|
Eb|--------------|-----------|------------|------------|----------|


-Repeate Chorus- 


Outro:

eb|--------------|-----------|------------|------------|------------|
Bb|-------12~----|-----10~---|------8~----|------7~----|------3~----|
Gb|---0--0--0--0-|--0-0--0-0-|--0-0---0-0-|--0-0---0-0-|--0-0---0-0-|
Db|--------------|-----------|------------|------------|------------|
Ab|-10-10----10--|-9-9----9--|-7-7-----7--|-5-5-----5--|-3-3-----3--|
Eb|--------------|-----------|------------|------------|------------|

eb|------------|------------|---------------|-3~~~---|
Bb|------3~----|------5~----|-7~----8~------|-3~~~---|
Gb|--0-0---0-0-|--0-0---0-0-|---0-0---0-0~~-|-0~~~---|
Db|------------|------------|---------------|-0~~~---|
Ab|-3-3-----3--|-5-5-----5--|----5-----5----|-2~~~---|
Eb|------------|------------|---------------|-3~~~---|
Suggest correction
comments
print report bad tab
1 comment total.
0 reply
em0tics11 10 wrote on December 11 2013, 08:44 pm

**** that

guest
You may want to rate the tab now too:
select rating
Wanna post a correction for this tab? Suggest correction