Oops, an error
Loading. Please wait.

It Ends Chords

version 1
version 1

Whole song

Interactive

19,700 views 6 this week
no commentswrite comment
1 2 3 4 5
please rate
add to favorites
launch autoscroll
font size
0
reset
transpose
0
reset
simplify chords
display chords
guitar tuner
Autoscroll
slow
fast
+/-
esc
set tempo
stop
Help us to improve Ultimate-Guitar.com Take our survey!
×
Faber Drive
It Ends
Submitted by: paramore_fans@yahoo.com
This is 100% correct!!!

Key: E

Tuning: Standard EADGBe

Chords used:
C#m7 - x42400 or x424xx
A -    x02200 or x02220
B -    x24400 or x24442
C#m -  x46600 -  x46654
F# -   244300 -  244322
E -    022100


Intro: also do this at verses
    C#m7        A
e|---------|---------|
B|---------|---------|
G|-----4---|-----4---|
D|---2---2-|---2---2-|
A|-4-------|-0-------|
E|---------|---------|


Verse 1:
C#m7              A
  So clear silver moon
Wind moves through my room
C#m7               A
  Memories of Saturday
(memories of Saturday)
C#m7                 A
  Slight turn of her head
Eyes down when she said
C#m7                      A
  She's going away going away
       F#    A
going away I need to know this


Chorus 1:
B          C#m A       E
  Am I the fool am I a victim?
B            C#m
  I'd rather know
A              E
  You'd rather kiss him good
B       C#m       A
night tonight I'm blinded
E   B        C#m
  I tried, I tried
   A
Is this the way is
this the way it ends?


Interlude: C#m7-A


Verse 2:
C#m7            A
  Dark echoes inside
Can't sleep through the night
C#m7                        A
  All the words I heard you say
(memories of Saturday)
C#m7            A
  Fade over the yard
Made under the stars
C#m7                 A
  Stuck down in this place
            F#
Hands on my face
  A
I need to know this


Guitar 2:
      C#m7         A         C#m7           A
e|-------4---|-------4---|-------4---|-7--5--4--5-4--|
B|-2/4-5---5-|-2/4-5---4-|-2/4-5---5-|---------------|
G|-----------|-----------|-----------|---------------|
D|-----------|-----------|-----------|---------------| x2
A|-----------|-----------|-----------|---------------|
E|-----------|-----------|-----------|---------------|


(Repeat Chorus 1)


Bridge:
C#m
  Get up and chase the vision
                            A
Stand up watch the world go by
B        C#m
Ahhh ahhh You found
feel the reason
Black clouds are
               A
filling up my sky
B         F#(hold)
Ahhh ahhh yeahhhhh


Chorus 2:
B          C#m A       E
  Am I the fool am I a victim?
B            C#m
  I'd rather know
A              E(hold)
  You'd rather kiss him


     B      C#m      A      E
e|-------|-------|-------|-------|
B|-------|-------|-------|-------|
G|-----4-|-----6-|-----2-|-----1-|
D|---4---|---6---|---2---|-------|
A|-2-----|-4-----|-0-----|---2---|
E|-------|-------|-------|-0-----|


     B      C#m      A     E
e|-------|-------|-------|-0-|
B|-------|-------|-------|-0-|
G|-----4-|-----6-|-----2-|-1-|
D|---4---|---6---|---2---|-2-|
A|-2-----|-4-----|-0-----|-2-|
E|-------|-------|-------|-0-|


(Repeat Chorus 1)


Chorus 3:
B          C#m A       E
  Am I the fool am I a victim?
B            C#m
  I'd rather know
A              E
  You'd rather kiss him good
B       C#m       A
night tonight I'm blinded
E   B        C#m
  I tried, I tried
   A(hold)
Is this the way
       C#m B A(hold)
it ends?


Ending:
   C#m          B      A
e|---------|---------|-0-|
B|---------|---------|-0-|
G|-----6---|-----4---|-2-|
D|---6---6-|---4---4-|-2-|
A|-4-------|-2-------|-0-|
E|---------|---------|---|
Suggest correction
Give kudos to tab author, rate the tab!
1 2 3 4 5
comments
print report bad tab
guest
You may want to rate the tab now too:
select rating
Please do not post tabs as comments. Select "correction" instead!