Oops, an error
Loading. Please wait.

It Ends Tab

version 4
version 4

Whole song

Interactive

3,734 views 1 this week
no commentswrite comment
1 2 3 4 5
please rate
add to favorites
launch autoscroll
font size
0
reset
how to read this tab
guitar tuner
Autoscroll
slow
fast
+/-
esc
set tempo
stop
Help us to improve Ultimate-Guitar.com Take our survey!
×
Author
----------------------------------------------------------------------------
                             It Ends - Faber Drive
----------------------------------------------------------------------------

Tabbed by: AnimeSkater 101
Email: ferguip@hotmail.com
Tuning: Standard
Note: Added a section for the strumming pattern as "Pa|" U=up D=down

Okay, a year has passed since my first, very sad attempt. My ears have matured more 
me realize just how sad it was (don't know
how I thought I could tab it right when I couldn't even get the lyrics right). I'll put 
vid on YouTube if I find the time. Well, here goes something!

Verse x9
Pa|
e|------------------|
B|------------------|
G|---4---------4----|
D|--2-2-------2-2---|
A|-4---------0------|
E|------------------|

Pre-Chorus x1
Pa|DUD DDDDDDD DUD DDDDDDD DU
e|-------------------------------|
B|-------------------------------|
G|-444-4444444-446-6666666-66----|
D|-444-4444444-446-6666666-66----|
A|-222-2222222-224-4444444-44----|
E|-------------------------------|

Chorus x1
Pa|D D D  DUDUDU DU  D D D  DUDUDU DU x2
e|--------------------------------------|
B|--------222222-22---------------------|
G|-7-7-7--222222-22--5-5-5--111111-11---|
D|-7-7-7--222222-22--5-5-5--222222-22---|
A|-5-5-5--000000-00--3-3-3--222222-22---|
E|--------------------------000000-00---|

Pa|D D D  DUDUDU DU  D D D  DUDUDU DU x1
e|--------------------------------------|
B|-------------------2-2-2--------------|
G|-7-7-7--555555-55--2-2-2--111111-11---|
D|-7-7-7--555555-55--2-2-2--222222-22---|
A|-5-5-5--333333-33--0-0-0--222222-22---|
E|--------------------------000000-00---|

Normal Ending              Alternative Ending
Pa|D D D  DUDUDU DU  D x1  D D D  DUDUDU DU  DDDDDDDD DDDDDDDD x1
e|-----------------------|---------------------------------------|
B|-------------------2---|-------------------22222222-22222222---|
G|-7-7-7--555555-55--2---|-7-7-7--555555-55--22222222-22222222---|
D|-7-7-7--555555-55--2---|-7-7-7--555555-55--22222222-22222222---|
A|-5-5-5--333333-33--0---|-5-5-5--333333-33--00000000-00000000---|
E|-----------------------|---------------------------------------|

Verse 2 x2
Guitar 2 (take turns, and play during the rings of guitar 1)
e|---------4---------4---------4-5/75-4-5-4-----------------|
B|-----3/45-5----3/45-4----3/45-5---------------------------|
G|----------------------------------------------------------|
D|----------------------------------------------------------|
A|----------------------------------------------------------|
E|----------------------------------------------------------|

Bridge-Intro x1
Pa|DDDDDDD DU
e|---------------|
B|---------------|
G|-4444444-44----|
D|-4444444-44----|
A|-2222222-22----|
E|---------------|

Bridge-Main x2
Pa|D D  DUDUD DU x2 D D  DUDUD DU D D DUDUD DU x1
e|----------------|-----------------------------|
B|----------------|---------------2-2-----------|
G|-6-6--66666-66--|-4-4--44444-44-2-2-00000-00--|
D|-6-6--66666-66--|-4-4--44444-44-2-2-22222-22--|
A|-4-4--44444-44--|-2-2--22222-22-0-0-22222-22--|
E|----------------|-------------------00000-00--|

Breakdown x1
Pa|                                          D
e|-------------------------------------------0-----------------------------|
B|-------------------------------------------0-----------------------------|
G|---6-----8-----5-----3-----6-----8-----5---1-----------------------------|
D|--6-----8-----5-----3-----6-----8-----5----2-----------------------------|
A|-4-----6-----3-----1-----4-----6-----3-----2-----------------------------|
E|-------------------------------------------0-----------------------------|

Outro X1
Pa|            D
e|-------------0-----------------------------------------------------------|
B|-------------0-----------------------------------------------------------|
G|---6-----8---1-----------------------------------------------------------|
D|--6-----8----2-----------------------------------------------------------|
A|-4-----6-----2-----------------------------------------------------------|
E|-------------0-----------------------------------------------------------|

Play Order:
Verse
Chorus
Verse with Verse 2 Guitar 2
Chorus
Bridge-Intro and Main
Breakdown
Chorus with Alternative Ending
Chorus
Outro

| /  slide up
| \  slide down
| h  hammer-on
| p  pull-off
| ~  vibrato
| +  harmonic
| x  Mute note

Well there it is. Um, enjoy! (^_^)
============================================================================
Suggest correction
What's this?
You can suggest a correction to this tab. Community and Mods will review your correction and vote to approve or reject it.
comments
We did not receive enough feedback on this tab! Please rate:
print report bad tab
1 2 3 4 5
guest
You may want to rate the tab now too:
select rating
Please do not post tabs as comments. Select "correction" instead!