Oops, an error
Loading. Please wait.

When Im With You tab

version 2
version 2

Whole song

Interactive

55,300 views 6 this week
1 commentread comment
1 2 3 4 5
x 15
add to favorites
×
Save as Personal and add changes to this tab that will be seen only by you. Learn more ›
×
You can save this tab as Personal to edit and correct it or add notes. All changes will be seen only by you. Learn more »
launch autoscroll
font size
0
reset
how to read this tab
guitar tuner
edit
Autoscroll
slow
fast
+/-
esc
set tempo
stop
Song - "When I'm With You"
Band - Faber Drive
Album - Seven Second Surgery
Tuning - Standard (E A D G B E)


----------------------------------------------------------------------------


>   /  Slide Up
>   \  Slide Down
>   v  downstroke
>   ^  upstroke
>   ~  vibrato
>   h  hammer on
>   p  pull off
>   x  muted note


Intro


Guitar 1

e|-3--3-3-3-3--3--3-3-3-3-----3--3-3-3-3--3--3-3-3-3----|
B|-3--3-3-3-3--3--3-3-3-3-----3--3-3-3-3--3--3-3-3-3----|
G|-0--0-0-0-0--0--0-0-0-0-----2--2-2-2-2--2--2-2-2-2----|
D|-0--0-0-0-0--0--0-0-0-0-----0--0-0-0-0--0--0-0-0-0----|
A|-2--2-2-2-2--2--2-2-2-3-----0--0-0-0-0--0--0-0-0-0----|
E|-3--3-3-3-3--3--3-3-3-3-----2--2-2-2-2--2--2-2-2-2----|
   v  v ^ v ^  v  v ^ v ^ PATTERN CONTINUES THROUGHOUT...

e|-3--3-3-3-3--3--3-3-3-3-----3--3-3-3-0--3--3-3-3-3----|
B|-3--3-3-3-3--3--3-3-3-3-----3--3-3-3-0--3--3-3-3-3----|
G|-0--0-0-0-0--0--0-0-0-0-----0--0-0-0-0--0--0-0-0-0----|
D|-2--2-2-2-2--2--2-2-2-2-----2--2-2-2-2--2--2-2-2-2----|
A|-2--2-2-2-2--2--2-2-2-2-----3--3-3-3-3--3--3-3-3-3----|
E|-x--x-x-x-x--x--x-x-x-x-----x--x-x-x-x--x--x-x-x-x----|


Guitar 2

e|------------------------------------------------------------------------|
B|------------------------------------------------------------------------|
G|------7----7---------------------------7-----7--------------------------|
D|---5----5-------7-----5-7-7/9-7-5---5-----5--------------5-7-7/9-7-5----|
A|------------------------------------------------------------------------|
E|------------------------------------------------------------------------|

Guitar 3

e|------------------------------------------------------------------------|
B|------------------------------------------------------------------------|
G|---4-5-4---4-5-------4-5-4---4-5-------4-5-4---4-5-------4-5-4---4-5----|
D|-5-------5---------4-------4---------2-------2---------0--------4-------|
A|------------------------------------------------------------------------|
E|------------------------------------------------------------------------|


Verse 1

e|-3--3-3-3-3--3--3-3-3-3---3--3-3-3-3--3--3-3-3-3----|
B|-3--3-3-3-3--3--3-3-3-3---3--3-3-3-3--3--3-3-3-3----|
G|-0--0-0-0-0--0--0-0-0-0---0--0-0-0-0--0--0-0-0-0----|
D|-0--0-0-0-0--0--0-0-0-0---2--2-2-2-2--2--2-2-2-2----|
A|-2--2-2-2-2--2--2-2-2-2---3--3-3-3-3--3--3-3-3-3----|
E|-3--3-3-3-3--3--3-3-3-3---x--x-x-x-x--x--x-x-x-x----|
                                                              2x
e|-2--2-2-2-2--2--2-2-2-2---3--3-3-3-3--3--3-3-3-3----|
B|-3--3-3-3-3--3--3-3-3-3---3--3-3-3-3--3--3-3-3-3----|
G|-2--2-2-2-2--2--2-2-2-2---0--0-0-0-0--0--0-0-0-0----|
D|--------------------------2--2-2-2-2--2--2-2-2-2----|
A|--------------------------3--3-3-3-3--3--3-3-3-3----|
E|--------------------------x--x-x-x-x--x--x-x-x-x----|


Pre Chorus

e|--3--3-3-3-3--3--3-3-3-3----3--3-3-3-3--3--3-3-3-3----|
B|--3--3-3-3-3--3--3-3-3-3----3--3-3-3-3--3--3-3-3-3----|
G|--2--2-2-2-2--2--2-2-2-2----0--0-0-0-0--0--0-0-0-0----|
D|--0--0-0-0-0--0--0-0-0-0----0--0-0-0-0--0--0-0-0-0----|
A|--0--0-0-0-0--0--0-0-0-0----2--2-2-2-2--2--2-2-2-2----|
E|--2--2-2-2-2--2--2-2-2-2----3--3-3-3-3--3--3-3-3-3----|

e|--3--3-3-3-3--3--3-3-3-3----|
B|--3--3-3-3-3--3--3-3-3-3----|
D|--2--2-2-2-2--2--2-2-2-2----|
G|----------------------------|
A|----------------------------|
E|----------------------------|


Chorus

e|-3--3-3-3-3--3--3-3-3-3-----3--3-3-3-3--3--3-3-3-3----|
B|-3--3-3-3-3--3--3-3-3-3-----3--3-3-3-3--3--3-3-3-3----|
G|-0--0-0-0-0--0--0-0-0-0-----2--2-2-2-2--2--2-2-2-2----|
D|-0--0-0-0-0--0--0-0-0-0-----0--0-0-0-0--0--0-0-0-0----|
A|-2--2-2-2-2--2--2-2-2-3-----0--0-0-0-0--0--0-0-0-0----|
E|-3--3-3-3-3--3--3-3-3-3-----2--2-2-2-2--2--2-2-2-3----|
                                                                2x
e|-3--3-3-3-3--3--3-3-3-3-----3--3-3-3-0--3--3-3-3-3----|
B|-3--3-3-3-3--3--3-3-3-3-----3--3-3-3-0--3--3-3-3-3----|
G|-0--0-0-0-0--0--0-0-0-0-----0--0-0-0-0--0--0-0-0-0----|
D|-2--2-2-2-2--2--2-2-2-2-----2--2-2-2-2--2--2-2-2-2----|
A|-2--2-2-2-2--2--2-2-2-2-----3--3-3-3-3--3--3-3-3-3----|
E|-x--x-x-x-x--x--x-x-x-x-----x--x-x-x-x--x--x-x-x-x----|

Verse 2


e|-3--3-3-3-3--3--3-3-3-3---3--3-3-3-3--3--3-3-3-3----|
B|-3--3-3-3-3--3--3-3-3-3---3--3-3-3-3--3--3-3-3-3----|
G|-0--0-0-0-0--0--0-0-0-0---0--0-0-0-0--0--0-0-0-0----|
D|-0--0-0-0-0--0--0-0-0-0---2--2-2-2-2--2--2-2-2-2----|
A|-2--2-2-2-2--2--2-2-2-2---3--3-3-3-3--3--3-3-3-3----|
E|-3--3-3-3-3--3--3-3-3-3---x--x-x-x-x--x--x-x-x-x----|
                                                              2x
e|-3--3-3-3-3--3--3-3-3-3---3--3-3-3-3--3--3-3-3-3----|
B|-3--3-3-3-3--3--3-3-3-3---3--3-3-3-3--3--3-3-3-3----|
G|-2--2-2-2-2--2--2-2-2-2---0--0-0-0-0--0--0-0-0-0----|
D|--------------------------2--2-2-2-2--2--2-2-2-2----|
A|--------------------------3--3-3-3-3--3--3-3-3-3----|
E|--------------------------x--x-x-x-x--x--x-x-x-x----|

Pre Chorus

e|--3--3-3-3-3--3--3-3-3-3----3--3-3-3-3--3--3-3-3-3----|
B|--3--3-3-3-3--3--3-3-3-3----3--3-3-3-3--3--3-3-3-3----|
G|--2--2-2-2-2--2--2-2-2-2----0--0-0-0-0--0--0-0-0-0----|
D|--0--0-0-0-0--0--0-0-0-0----0--0-0-0-0--0--0-0-0-0----|
A|--0--0-0-0-0--0--0-0-0-0----2--2-2-2-2--2--2-2-2-2----|
E|--2--2-2-2-2--2--2-2-2-2----3--3-3-3-3--3--3-3-3-3----|

e|--2--2-2-2-2--2--2-2-2-2----|
B|--3--3-3-3-3--3--3-3-3-3----|
D|--2--2-2-2-2--2--2-2-2-2----|
G|----------------------------|
A|----------------------------|
E|----------------------------|

Chorus

e|-3--3-3-3-3--3--3-3-3-3-----3--3-3-3-3--3--3-3-3-3----|
B|-3--3-3-3-3--3--3-3-3-3-----3--3-3-3-3--3--3-3-3-3----|
G|-0--0-0-0-0--0--0-0-0-0-----2--2-2-2-2--2--2-2-2-2----|
D|-0--0-0-0-0--0--0-0-0-0-----0--0-0-0-0--0--0-0-0-0----|
A|-2--2-2-2-2--2--2-2-2-3-----0--0-0-0-0--0--0-0-0-0----|
E|-3--3-3-3-3--3--3-3-3-3-----2--2-2-2-2--2--2-2-2-2----|
                                                                2x
e|-3--3-3-3-3--3--3-3-3-3-----3--3-3-3-0--3--3-3-3-3----|
B|-3--3-3-3-3--3--3-3-3-3-----3--3-3-3-0--3--3-3-3-3----|
G|-0--0-0-0-0--0--0-0-0-0-----0--0-0-0-0--0--0-0-0-0----|
D|-2--2-2-2-2--2--2-2-2-2-----2--2-2-2-2--2--2-2-2-2----|
A|-2--2-2-2-2--2--2-2-2-2-----3--3-3-3-3--3--3-3-3-3----|
E|-x--x-x-x-x--x--x-x-x-x-----x--x-x-x-x--x--x-x-x-x----|

Bridge

e|-3--3-3-3-3----3--3-3-3-3----3--3-3-3-3----3--3-3-3-3----|
B|-3--3-3-3-3----3--3-3-3-3----3--3-3-3-3----3--3-3-3-3----|
G|-0--0-0-0-0----2--2-2-2-2----0--0-0-0-0----0--0-0-0-0----|   <-- x3
D|-0--0-0-0-0----0--0-0-0-0----2--2-2-2-2----2--2-2-2-2----|
A|-2--2-2-2-2----0--0-0-0-0----3--3-3-3-3----2--2-2-2-2----|
E|-3--3-3-3-3----2--2-2-2-2----0--0-0-0-0----0--0-0-0-0----|

e|--3--3-3-3-3----3--3-3-3-3----3--3-3-3-3--3----|
B|--3--3-3-3-3----3--3-3-3-3----3--3-3-3-3--3----|
D|--2--2-2-2-2----0--0-0-0-0----2--2-2-2-2--2----|
G|--0--0-0-0-0----0--0-0-0-0---------------------|
A|--0--0-0-0-0----2--2-2-2-2---------------------|
E|--2--2-2-2-2----3--3-3-3-3---------------------|


Intro / Chorus Thing


Guitar 2

e|------------------------------------------------------------------------|
B|------------------------------------------------------------------------|
G|------7----7---------------------------7-----7--------------------------|
D|---5----5-------7-----5-7-7/9-7-5---5-----5--------------5-7-7/9-7-5----|
A|------------------------------------------------------------------------|
E|------------------------------------------------------------------------|

Guitar 3

e|------------------------------------------------------------------------|
B|------------------------------------------------------------------------|
G|---4-5-4---4-5-------4-5-4---4-5-------4-5-4---4-5-------4-5-4---4-5----|
D|-5-------5---------4-------4---------2-------2---------0--------4-------|
A|------------------------------------------------------------------------|
E|------------------------------------------------------------------------|


*** Guitar 1 comes in on the second echo of "miss you"

e|--3--3-3-3-3----3--3-3-3-3----3--3-3-3-3--3---|
B|--3--3-3-3-3----3--3-3-3-3----3--3-3-3-3--3---|
G|--2--2-2-2-2----0--0-0-0-0----2--2-2-2-2--2---|
D|--0--0-0-0-0----0--0-0-0-0--------------------|
A|--0--0-0-0-0----2--2-2-2-2--------------------|
E|--2--2-2-2-2----3--3-3-3-3--------------------|


Chorus

e|-3--3-3-3-3--3--3-3-3-3-----3--3-3-3-3--3--3-3-3-3----|
B|-3--3-3-3-3--3--3-3-3-3-----3--3-3-3-3--3--3-3-3-3----|
G|-0--0-0-0-0--0--0-0-0-0-----2--2-2-2-2--2--2-2-2-3----|
D|-0--0-0-0-0--0--0-0-0-0-----0--0-0-0-0--0--0-0-0-3----|
A|-2--2-2-2-2--2--2-2-2-3-----0--0-0-0-0--0--0-0-0-3----|
E|-3--3-3-3-3--3--3-3-3-3-----2--2-2-2-2--2--2-2-2-3----|
                                                                4x
e|-3--3-3-3-3--3--3-3-3-3-----3--3-3-3-0--3--3-3-3-3----|
B|-3--3-3-3-3--3--3-3-3-3-----3--3-3-3-0--3--3-3-3-3----|
G|-0--0-0-0-0--0--0-0-0-0-----0--0-0-0-0--0--0-0-0-0----|
D|-2--2-2-2-2--2--2-2-2-2-----2--2-2-2-2--2--2-2-2-2----|
A|-2--2-2-2-2--2--2-2-2-2-----3--3-3-3-3--3--3-3-3-3----|
E|-x--x-x-x-x--x--x-x-x-x-----x--x-x-x-x--x--x-x-x-x----|


Ending

e|-3--3-3-3-3--3--3-3-3-3-----3--3-3-3-3--3--3-3-3-3----3--|
B|-3--3-3-3-3--3--3-3-3-3-----3--3-3-3-3--3--3-3-3-3----3--|
G|-0--0-0-0-0--0--0-0-0-0-----2--2-2-2-2--2--2-2-2-2----0--|
D|-0--0-0-0-0--0--0-0-0-0-----0--0-0-0-0--0--0-0-0-0----2--|
A|-2--2-2-2-2--2--2-2-2-3-----0--0-0-0-0--0--0-0-0-0----2--|
E|-3--3-3-3-3--3--3-3-3-3-----2--2-2-2-2--2--2-2-2-3----x--|
Suggest correction
Creating personal tab
Creating personal tab
You can edit any tab online and save it as your Personal.

You can edit, replace or remove any tab part or add personal notes – all changes will be seen only by you.

Personal tabs can be accessed anytime from any device, even offline.
Learn more »
comments
print report bad tab
1 comment total.
+1 reply
LightningLogan 146 Nov 18, 2009 06:55 PM

another way of doing the intro with one guitar and still sounding awesome is just
e|------------------------------------------------------------------|
B|------------------------------------------------------------------|
G|---4-7-4---4-7-4---4-7-4----------4-7-4---4-7-4---4-7-4-----------|
D|-5-------5-------4-------7/9-7-5------------------------7/9-7-5-|
A|---------------------------------7------7-------5-----------------|
E|------------------------------------------------------------------|

guest
You may want to rate the tab now too:
select rating
Wanna post a correction for this tab? Suggest correction