Oops, an error
Loading. Please wait.

Cant Let You Go Tab

version 2
version 2

Intro

Interactive

7 views 1 this week
no commentswrite comment
1 2 3 4 5
3 more votes to show rating
add to favorites
launch autoscroll
font size
0
reset
how to read this tab
guitar tuner
Autoscroll
slow
fast
+/-
esc
set tempo
stop
Help us to improve Ultimate-Guitar.com Take our survey!
×
Author
Difficulty
novice
[Intro] 
(and it just loops throughout the song. Until the very last run through of the riff)

e|---------------------------------------------------------------------------------|
B|-5-4h5p4-4-5-5-5h7-9-7-5----------------5-4h5p4-4-5-5-5h7-9-7-5----------------5-|
G|------------------------6-4-6-4-4h6p4-4------------------------6-4-6-4-4h6p4-4---|
D|-4---------4-4----------6-----4---------4---------4-4----------6-----4---------4-|
A|---------------------------------------------------------------------------------|
E|---------------------------------------------------------------------------------|

The last couple bars of it finish a little different. 

e|---------------------------------------------------------------------------------|
B|-5-4h5p4-4-5-5-5h7-9-7-5----------------5-4h5p4-4-5-5-5h7-9-7-5----------------5-|
G|------------------------6-4-6-4-4h6p4-4------------------------6-4-6-4-4h6p4-4-4-|
D|-4---------4-4----------6-----4---------4---------4-4----------6-----4-----------|
A|---------------------------------------------------------------------------------|
E|---------------------------------------------------------------------------------|
 

************************************

| h  Hammer-on
| p  Pull-off

************************************
Suggest correction
Give kudos to tab author, rate the tab!
1 2 3 4 5
comments
print report bad tab
guest
You may want to rate the tab now too:
select rating
Wanna post a correction for this tab? Suggest correction