Oops, an error
Loading. Please wait.

Im Not Afraid Bass Tab

version 2
version 2

Whole song

412 views 1 this week
no commentswrite comment
1 2 3 4 5
3 more votes to show rating
add to favorites
launch autoscroll
font size
0
reset
guitar tuner
Autoscroll
slow
fast
+/-
esc
set tempo
stop
Help us to improve Ultimate-Guitar.com Take our survey!
×
Author
Difficulty
novice
Face to Face
I'm Not Afraid
Don't Turn Away

Tabbed by Jonathan takish



Intro/Chorus X2

G|--------------------------------------------------------|
D|--------------------------------------------------------|
A|-------------3-3-3-3-3-3----1-1-1-1-1-1---3-3-3-3-3-3---|
E|-1-1-1-1-1----------------------------------------------|


Pre Verse/End verse
Play x2 here only, every other time only play once


G|-------------------------------------------------------------------------------------|
D|-------------------------------------------------------------------------------------|
A|--8-8-8-8-8-7-7-7-7-7-8-8-8-8-8-8-7-7-7-7-7-8-8-8-8-8-7-7-7-7-7----------------------|
E|-----------------------------------------------------------------5-5-5-5-5-7-7-7-7-7-|


Verse X4

G|---------------------------------------------------------|
D|---------------------------------------------------------|
A|-----------------3-3-3-3-3-3-3--2-2-2-2-2-2-2-2-2-2-2-2-2|
E|-1-1-1-1-1-1-1-------------------------------------------|

Then Play Pre-verse/end verse ONCE

Intro Chorus x4

Pre/End Verse x1

Then Back to verse



Bridge


G|----------------------------------------------------------|
D|----------------------------------------------------------|
A|-5-5-5-5-3-3-3-3-5-5-5-5-5-3-3-3-3-3-1-1-1-1-1-3-3-3-3-3--|
E|----------------------------------------------------------|
Suggest correction
Give kudos to tab author, rate the tab!
1 2 3 4 5
comments
print report bad tab
guest
You may want to rate the tab now too:
select rating
Wanna post a correction for this tab? Suggest correction