Oops, an error
Loading. Please wait.

Merry Christmas Tab

884 views 3 this week
no commentswrite comment
1 2 3 4 5
3 more votes to show rating
add to favorites
launch autoscroll
font size
0
reset
how to read this tab
guitar tuner
Autoscroll
slow
fast
+/-
esc
set tempo
stop
Help us to improve Ultimate-Guitar.com Take our survey!
×
Author
Difficulty
intermediate
"Merry Christmas"
by Face To Face
From the album "The Merry Christmas Single"
Tab by: CHris 

Tuning: Standard

C                A            F                    G
Well I feel alot better but I still can't find the cheer
C                          A              F          G
I wanna tell you about the way I feel but I can't sincere
A                  F                 G        C      D
I thought I had it figured out but I guess it wasn't clear
A                       F               G
And I hope that we'd be better off this year...

C                    A                  F               G
Started out a little late, I guess it's Christmas time again
C                          A                  F           G
You're not happy about the way feels now that we are only friends
A                   F                     G       C        D
I thought I had you figured out, but it's now and that was then
A                        F            G
And I hope that we arent starting up again...

Chorus
~~~~~~
A     C                F                 C
Merry Christmas, and I hope you're happy here
A     C                F                 C               D   E F     G    C
Merry Christmas, and I hope that you get everything that you deserve this year

guitar 2 plays over chorus until ....i hope that... then same as guitar 1

e|---------------------------------------------------------------------------|
B|---------------------------------------------------------------------------|
G|---5-----------------------------------------------------------------------|
D|---------------------------------------------------------------------------|
A|---3-----------------------------------------------------------------------|
E|---------------------------------------------------------------------------|

both guitars 
     C         A          F G A C G
e|---------------------------------------------------------------------------|
B|---------------------------------------------------------------------------|
G|---5-5-5-5-5------------------5--------------------------------------------|
D|---5-5-5-5-5-7-7-7-7-7--3-5-7-5-5-5-5-5-5----------------------------------|
A|---3-3-3-3-3-7-7-7-7-7--3-5-7-3-5-5-5-5-5----------------------------------|
E|-------------5-5-5-5-5--1-3-5---3-3-3-3-3----------------------------------|


Verse 3
~~~~~~~
C                   A                F              G
Now I feel a little love and I'm not sure how I got here
C                     A                      F                G
Doesn't matter what I figured out it's gonna be the same this year
A                 F                  G     C    D
I guess we made a big mistake but it isn't very clear
A                       F              G
And I hope that we'd be better of this year...

[Repeat Chorus]

Solo
~~~~
guitar 1:  Play verse

guitar 2

e|---------------------------------------------------------------------------|
B|---------------------------------------------8~8h10r8~-8-8-8-8-8-8-8-8-8-8-|
G|---5-5-5-5-5-5-9-9-9-9-9-9-10-9-7-5-4-5-7-4--------------------------------|
D|---------------------------------------------------------------------------|
A|---------------------------------------------------------------------------|
E|---------------------------------------------------------------------------|


e|--8h10r8~-----8-7----------------------------------------------------------|
B|---------8~-------8---8-------------8h10r8~--------------------------------|
G|--------------------9---9-7-5-9~--5----------------------------------------|
D|---------------------------------------------------------------------------|
A|---------------------------------------------------------------------------|
E|---------------------------------------------------------------------------|

[Repeat Chorus x2]

guitar 2 plays over chorus until ....i hope that... then same as gutar 1

e|---------------------------------------------------------------------------|
B|---------------------------------------------------------------------------|
G|---17----------------------------------------------------------------------|
D|---------------------------------------------------------------------------|
A|---15----------------------------------------------------------------------|
E|---------------------------------------------------------------------------|

end on c
Suggest correction
Give kudos to tab author, rate the tab!
1 2 3 4 5
comments
print report bad tab
guest
You may want to rate the tab now too:
select rating
Wanna post a correction for this tab? Suggest correction