Oops, an error
Loading. Please wait.

Walk The Walk Bass Tab

version 1
version 1

Whole song

Interactive

3,004 views 1 this week
2 commentsread comments
1 2 3 4 5
x 4
add to favorites
launch autoscroll
font size
0
reset
guitar tuner
Autoscroll
slow
fast
+/-
esc
set tempo
stop
Help us to improve Ultimate-Guitar.com Take our survey!
×
Walk the Walk - Face to Face
Potking

Intro

G-------------------------------
D----5---3-2---5---3-5-----------
A-333--33-3--33--33-------------
E-------------------------------

then

G-------------------
D----5--3-2--3-5----
A-------------------
E-333-33-3-33-------

then

G-----------------------------
D-----------------------------
A----7---6--5----5-7----------
E-666--66--6--66--------------

then

G--------------------------
D----3--2---2----2----2----
A--------------------------
E-111-11--0----0----0------

Repeat all of that I think 4 times and then it gets into the verse and chorus

I think this is the verse

G-----------------
D-----------------
A-----------1>---- Repeat a bunch of times. 
E--1>---3>--------

Chorus

G-------------------
D-------------------
A-----3>------1>---- This is 100% correct
E-3>------1>--------

There are some other parts in the song but I haven't figured it out yet.
Suggest correction
comments
print report bad tab
2 comments total.
0 reply
TheBassMan3 341 Mar 12, 2008 09:10 PM

|----------12-...
|-10-10-10----...
|-------------...
|-------------...

NOT

|---------...
|-------5-...
|-3-3-3---...
|---------...

0 reply
Jasizzle 10 Apr 25, 2015 08:34 PM

Clearly wrong. this is one of the most wrong tabs I have ever seen on ultimate guitar. how did you even come up with this, are you def or something?

guest
You may want to rate the tab now too:
select rating
Wanna post a correction for this tab? Suggest correction