Oops, an error
Loading. Please wait.

Tribulation Bass Tab

408 views 1 this week
no commentswrite comment
1 2 3 4 5
please rate
add to favorites
launch autoscroll
font size
0
reset
guitar tuner
Tab Pro tools
  • play this tab
  • loop segment
  • change instrument
  • show fretboard
  • metronome
×
Best way to learn
"Tribulation"
Autoscroll
slow
fast
+/-
esc
set tempo
stop
Contributor
Difficulty
Tuning
novice
D A D G B E
Song:TRIBULATION
Band:Faceless warrior
CD:Faceless Warrior
Tabbed By:Trymer

Intro
G|--------------------------------------------|
D|--------------------------------------------|
A|-10-10--5-5--6-6--1-1--8-8-8-8-8-8-8-8------|X4
D|--------------------------------------------|

chorus  
G|----------------------------------------------------|
D|----------------------------------------------------|
A|---------6-6-6-6---------8-8-8-8--------------------|X4
D|-5-5-5-5---------8-8-8-8----------------------------|

Verse part 1
G|----------------------------------------------------|
D|----------------------------------------------------|
A|----------------------------------------------------|X2
D|-5-5-5-5-0-0-0-0-1-1-1-1-1-1-8-8-8-8-8-8-3-3-3-3-3-3|

Verse Part 2
G|----------------------------------------------------|
D|----------------------------------------------------|
A|----------------------------------------------------|X4
D|-10-10-10-10-10-10-8-8-8-8-8-8-3-3-3-3-3-3----------|

Ending
G|-------|
D|-------|
A|-------|X1
D|-5~/17-|

Song Order:
Intro X4
Chorus X4
Verse (part 1)X2
Verse (Part 2)X4
Intro X4
Chorus X4
Verse (part 1)X2
Verse (Part 2)X4
Intro X4
Chorus X6
Ending X1

Lyrics:
Tribulation

Tribulation Tribulation

Destiny, from the time that i was born
Eternally chosen for a war
There are those who like to think it won't infect them
Just pull your sheets over your head and close your eyes
Hell is hot, wear a hat & drink a lot of ice tea
I've been told that the weathers not that nice

Tribulation Tribulation

Agony for those who lost their souls
we will be there to save them all
If your so arrogant to think this is not about you
then you're the one in denial of the Lord
I hope the worlds pleasures and lust will satisfy you
Revelation will one day bring the truth

Tribulation Tribulation 
Tribulation Tribulation
comments
We did not receive enough feedback on this tab! Please rate:
print report bad tab
1 2 3 4 5
I want to post or [tab]
guest
You may want to rate the tab now too:
select rating
Please do not post tabs as comments. Select "correction" instead!