Oops, an error
Loading. Please wait.

I Know Im Losing You Tab

27,459 views 12 this week
no commentswrite comment
1 2 3 4 5
x 5
add to favorites
launch autoscroll
font size
0
reset
how to read this tab
guitar tuner
Autoscroll
slow
fast
+/-
esc
set tempo
stop
Help us to improve Ultimate-Guitar.com Take our survey!
×
Author
Difficulty
novice
----------------------------------------------------------------------------
                  (I Know) I'm Losing You - The Faces
----------------------------------------------------------------------------

Tabbed by: GrateTheHouse

Email: nolanjohnselex@gmail.com

Tuning: Standard

Intro:

e|-------------|----------------------------5--7--10--|
B|-------------|--10----10-10--------10-----5--7--10--|
G|-------------|--10----10-10h12p10--10h12--5--7--10--|
D|0-0-0h10h12--|--10----10-10--------10---------------|
A|-------------|--------------------------------------|
E|-------------|--------------------------------------|

Verse:

e|-----------------------------------------------------------------|
B|-----------------------------------------------------------------|
G|---------7--7-----------10--10------------12--12-----------10--10|
D|---------7--7-----------10--10------------12--12-----------10--10|
A|0h2h3/5--5--5--0h2h3/8--8---8---0h2h3/10--10--10--0h2h3/8--8---8-|
E|-----------------------------------------------------------------|

Once the guitar comes back:

e|-----------------------------------------------|
B|-----------------------------------------------|
G|--7-7--7----10-10--10----12-12--12----10-10--10|
D|-7-7--7----10-10--10----12-12--12----10-10--10-|
A|5----5----8------8-----10-----10----8------8---|
E|-----------------------------------------------|

Here on in play some D F G F power chords. Solo in D. Then just grove around the 
riff pre and post drum solo.

| /  slide up
| \  slide down
| h  hammer-on
| p  pull-off
| ~  vibrato
| +  harmonic
| x  Mute note

============================================================================
Suggest correction
comments
print report bad tab
guest
You may want to rate the tab now too:
select rating
Wanna post a correction for this tab? Suggest correction