Oops, an error
Loading. Please wait.

Stay With Me bass

version 1
version 1

Whole song

Interactive

by Faces
13,547 views 45 this week
1 commentread comment
1 2 3 4 5
x 5
add to favorites
×
Save as Personal and add changes to this tab that will be seen only by you. Learn more ›
×
You can save this tab as Personal to edit and correct it or add notes. All changes will be seen only by you. Learn more »
launch autoscroll
font size
0
reset
guitar tuner
backing track
0:00
0:00
edit
Autoscroll
slow
fast
+/-
esc
set tempo
stop
Author
-------------------------------------------------------------------------------
                             Stay With Me - Faces
-------------------------------------------------------------------------------
Tabbed by: Ints92
E-mail: indrek92@gmail.com

Tuning: standard


Intro

G|-----------------------------------------------------------------------------|
D|------------------------/11--11-9-----------/9--7-7-7-7-7-5-5-5--7------7\5--|
A|--4-5-6-7--7--7---7--7-------------5--5--5--------------------------7/9------|
E|-----------------------------------------------------------------------------|

G|-----------------------------------------------------------------------------|
D|--5-5-5-4-4--------7------7\5--5-5-5----------------/11--11-11-11-9----------|
A|------------7-7-------7/9------------5--6--7--7--7-------------------11\-----|
E|----------------5------------------------------------------------------------|

G|-----------------------------------------------------------------------------|
D|-----------/9--9-9-9-7-7-----------------------------------------------------|
A|--5--5--5----------------9---------------------------------------------------|
E|----------------------------5------------------------------------------------| 

Verse

G|--------------------------------5\4--4-----------------------------------------------------|
D|--------7\6-x-6--4----------------------7------7\--------5\4--4--2--------------5\4--4--2--|
A|--------------------------5--5-------------7h9---------------------------------------------|
E|---7----------------5--7---------------------------5--5-------------3--4--5--5-------------|

G|-------------------------------5\4--4--2-------------------------------------|
D|---------7\6-x-6--4-----------------------------------5\4--4--2--------------|
A|-----------------------2/5--5----------------5-------------------------------|
E|---7--7-----------------------------------5-----5--5-------------3--4--5-----|

G|------------------------------------------------------5\4--4-----------------|
D|------5\4--4--2--------------7\6--6--4------------------------7------7\------|
A|----------------------------------------2--2/5--5--5-------------7h9---------|
E|---5-------------5--5--7--7--------------------------------------------------|

G|-----------------------------------------------------------------------------|
D|---------5\4--4--2--------------5\4--4--2---------------7\6--6--4------------|
A|-----------------------------------------------------------------------------|
E|---5--5-------------3--4--5--5---------------5/7--7--7-----------------------|

G|--------------5\4--4---------------------------------------------------------|
D|----------------------7------7\-------------7--7-----------------------------|
A|---2/5--5--5-------------7h9--------7--7--9------9--7--9---------------------|
E|---------------------------------5-------------------------------------------|

Solo guitar

G|--------------------------------------------------------5\4--4----------------------------------|
D|-------5\4--4--2------2--------7\6--6--4-x-----4----------------7------7\--------5\4--4--2------|
A|------------------2h4----------------------5h6----5--5-------------7h9--------------------------|
E|-5--5--------------------7--7----------------------------------------------5--5-------------3--4|

Verse continues

G|-----------------------------------------------------5\4--4--2-------------------------------|
D|---------5\4--4--2-------------7\6--6--4-----------------------------------5\4--4--2------2--|
A|------------------------------------------2/5--5--5--------------5\-------------------2h4----|
E|---5--5--------------5/7-7--7----------------------------------------5--5--------------------|

G|-----------------------------------------------------5\4--4--2-------------------------------|
D|---------5\4--4--2-------------7\6--6--4-----------------------------------5\4--4--2--2h4----|
A|------------------------------------------2/5--5--5---------------------------------------0--|
E|---5--5--------------5/7-7--7-------------------------------------3--5--5--------------------|

Chorus

G|--------------------------------------------------------5\4--4-----------------------------------|
D|---------5\4--4--2------2--------7\6--6--4----------------------7------7--------5\4--4--2--------|
A|--------------------2h4---------------------------5--5-------------7h9---------------------------|
E|---5--5--------------------7--7-------------5--7--------------------------5--5-------------3--4--|

G|--------------------------------------------------------5\4--4----------------------------------|
D|-------5\4--4--2------2--------7\6--6--4-x-----4----------------7------7\--------5\4--4--2------|
A|------------------2h4----------------------5h6----5--5-------------7h9--------------------------|
E|-5--5--------------------7--7----------------------------------------------5--5-------------3--4|

Solo guitar

G|---------------------------------------------------------------------------------|
D|-----------------------------------------------------------------/9--9-9-9-7-----|
A|-----------/9--9-9-9-7----------------/11--11-11-11-9-----5--5----------------5--|
E|---5--5-----------------5--7--7--7---------------------7-------------------------|

G|---------------------------------------------------------------------------------|
D|---2--3--4--5-3--3-4--5--6--7----7-----------7--------9---9--9-------------------|
A|-----------------------------------------7h8---------------------------9\--------|
E|------------------------------------5-5---------7--7-----------7--9h11-----------|

G|----------7----7-x-7-------------------------------------------------------------|
D|---/4------------------------7\--------------7--7--------------------------------|
A|-------5-----5-------5-5-7h9--------/7--7--9------9-9-7-7-9----------------------|
E|---------------------------------5-----------------------------------------------|

Verse

G|-----------------------------------------------------------5\4--4--2-x-----2-|
D|---------5\4--4--2-x-----2--------7\6--6--4-x-----4--------------------2h4---|
A|---------------------2h4----------------------4h6----5--5--------------------|
E|---5--5---------------------7--7---------------------------------------------|

------------------------|
-------5\4--4--2--------|
------------------------|
-5--5-------------3--4--|


G|-----------------------------------------------------------5\4--4----|
D|---------5\4--4--2-x-----2--------7\6--6--4-x-----4----------------7-|
A|---------------------2h4----------------------4h6----5--5------------|
E|---5--5---------------------7--7-------------------------------------|

--------------------------------|
-----7\--2--3--4--5--3--4--5--6-|
-7h9----------------------------|
--------------------------------|


Chorus

G|-------------------------------------------------------------7----7--7----------------|
D|---7----7----7--7---------2--------9----9--9--------4-------------------------7\------|
A|--------------------5-2h4-----------------------5h6----5--5-----5------5--7h9---------|
E|-----------5------5----------7--7-----7------7----------------------------------------|

G|--------------------------------------------------------------------------------------|
D|---2--3--4--5-3--3-4--5--6--7----7----7--7--------2---------9----9--9--------4--------|
A|----------------------------------------------2h4------------------------5h6----------|
E|------------------------------------5------5----------7--7-----7------7---------------|

G|---------7----7--7--------------------------------------------------------------------|
D|--------------------------7\-------------7--7-----------------------------------------|
A|---5--5-----5------5--7h9--------7--7--9------9-9-7--9--------------------------------|
E|------------------------------5-------------------------------------------------------|

G|-------------------------------------------------------5-x-4-------------------------------------|
D|---------7-------7---5--4--------7--6--4------4---------------7------7\--------5-x-4----------2--|
A|-------------7/9--------------------------5h6----5--5------------7h9------------------5-4--5-----|
E|---5--5--------------------7--7------------------------------------------5--5--------------------|

G|---------------------------------------------------------------------------|
D|-------------------9-9-9-9-9-11------------------7-7-7-7-7-9\--------------|
A|--7--7--7-7-7-7/11---------------5--5--5-5-5-7h9---------------------------|
E|---------------------------------------------------------------------------|

G|---------------------------------------------------------------------------|
D|-----7-------7\5--5-5-5-4-4--------7-------7\5--5-5-5----------------------|
A|--------7/9-----------------7-7-------7/9-------------5-5-6-6--------------|
E|--5-----------------------------5------------------------------------------|

G|----------------9--------------9-------------------------------------------|
D|---------------------------------------------------------7-7-7/9-9-7-------|
A|---7--7--7-7/11---11\7--7-7/11---11\7--5--5--7-7-7-9-9-9-------------------|
E|---------------------------------------------------------------------------|

G|---------------------------------------------------------------------------|
D|-----7---5-----------------------7-7-7-5-5-5-------------------------------|
A|-------------7-7-7-5-5-5-3-3-----------------7-7-7-5-5-5-3-3-5-5-----------|
E|---5-------------------------5-5-------------------------------------------|

G|---------------------------------------------------------------------------|
D|---------------------------------------------------------------------------|
A|---7--7--7-7-7--7-7-7--7-7-7-7-5-5-5-5-5-5-5-5-5-5-5-5-5-5-5-5-------------|
E|---------------------------------------------------------------5-----------|

Outro

G|---------------------------------------------------------------------------|
D|----------------------------/11-11-9-9---------------/9--9-9-9-7-7---------|
A|--5-6-7--7--7-7-7-7-7-7-7-7------------5-5-5-5-5-5-5---------------9-9-----|
E|-----------------------------------------------------------------------5---|

G|-------2-------------------------------------------------------------------|
D|-------------------------------------/11-11-9-------------/9--9-9-9-7-7----|
A|--3-4----3-4-4-4--7--7--7-7--7--7--7-----------5--5--5-5----------------9--|
E|---------------------------------------------------------------------------|

G|----------------------9-----------------------7------------7---------------|
D|---------------------------------------------------------------------------|
A|--5-6-7--7--7-7--7/11----11\9-7-7-7-5--5--7/9----9\7-5-7/9---9-7-5---------|
E|---------------------------------------------------------------------------|

G|---------------------------------------------------------------------------|
D|------7--5-5----7-7-7-7-5-5--------7------7----7-7-5-5-4-4-----------------|
A|-------------7--------------7-7-7-----7-9------------------7-7-------------|
E|---5-----------------------------------------------------------------------|

G|----------------------------------------------------------------------------------------|
D|----------------------------------------------------------------------------------------|
A|--7-7-7-7-7-7-7-7-7-7-7-7-7-7-7-7-5-5-5-5-5-5-5-5-5-5-5-5-5-6-7-8-----------------------|
E|------------------------------------------------------------------8-7-6-5----8-7-6-5----|

| /  slide up
| \  slide down
| h  hammer-on
| p  pull-off
| ~  vibrato
| +  harmonic
| x  Mute note
===============================================================================

            
            
Suggest correction
Creating personal tab
Creating personal tab
You can edit any tab online and save it as your Personal.

You can edit, replace or remove any tab part or add personal notes – all changes will be seen only by you.

Personal tabs can be accessed anytime from any device, even offline.
Learn more »
comments
print report bad tab
1 comment total.
0 reply
opusthecat 50 Dec 10, 2015 09:38 AM

Wow, this is some crazy bass stuff going on...

guest
You may want to rate the tab now too:
select rating
Wanna post a correction for this tab? Suggest correction