Oops, an error
Loading. Please wait.

Co-3 Tab

version 1
version 1

Whole song

Interactive

by Fact
1,561 views 1 this week
2 commentsread comments
1 2 3 4 5
excellent!
x 1
add to favorites
launch autoscroll
font size
0
reset
how to read this tab
guitar tuner
Tab Pro tools
  • play this tab
  • loop segment
  • change instrument
  • show fretboard
  • metronome
Autoscroll
slow
fast
+/-
esc
set tempo
stop
Contributor
Difficulty
Tuning
intermediate
D A D G B E
-------------------------------------------------------------------------------
			     Co-3 - Fact
-------------------------------------------------------------------------------
Tabbed by: kif999
Email: firebert@live.co.uk

Tuning: Drop D

Note: any x4, x5, x2,3 are to mark how many times you repeat that part, they are not mute notes!

	1.1 Both Guitars 0:00-0:17
e|----------------------------------------------------|
B|----------------------------------------------------|
G|----------------------------------------------------|
D|--------4-----------------------------4-------------| x4
A|--2-1-0-2--5--------------------2-1-0-2-5-6---0-----|
D|--2-1-0----5--6666666666666666--2-1-0---5-6---0-----|
Pm              ................
	Note- Sometimes when you play this riff, some of it is palm muted, listen out for it.
	
	1.2 Both Guitars 0:17-0:19
e|-----------------------------------|
B|-----------------------------------|
G|-----------------------------------|
D|-----------------------------------|
A|----2-5----------------------------|
D|--0-----0-1-4-0-6-9----------------|
PM  .     .     .

	1.3 Both Guitars 0:19-0:33
e|-------------------------------------------|
B|-------------------------------------------|
G|-------------------------------------------|
D|---------------x5--------------------------| x2
A|----------------------2-5------------------|
D|-00-0-0-4-1-0-------0-----0-1-4-0-6-9------|
PM .. . .             .     .     .

	1.4 Both Guitars 0:33 - 0:42
e|--------------------------------|
B|--------------------------------|
G|--------------------------------|
D|---------------x2-----5---------| x3
A|----------------------3--5--6---|
D|-00-0-0-4-1-0------------5--6---|
PM .. . .             

	1.5 Both Guitars 0:42 - 0:45
e|----------------------------|
B|----------------------------|
G|----------------------------|
D|---------------x2-----------|
A|----------------------------|
D|-00-0-0-4-1-0------00-0-0---|
PM .. . .            .. . .

	1.6 Guitar 1 0:45-0:54
e|-----------------------|
B|-----------------------|
G|-----------------------|
D|-----------------------| x4
A|-----------------------|
D|-2b-2b-2b-2b-000-0-0---|
PM             ... . .

	1.7 - Guitar 1	0:54-1.02
e|------------------------------------|
B|------------------------------------|
G|------------------------------------|
D|----------------------x3------------| 
A|--------------------------------5---|
D|-2b-2b-2b-2b-000-0-0-----2b-2b------|
PM             ... . .	

	1.7 Guitar 2  0:54-1.02
e|------------------------------------|
B|------------------------------------|
G|------------------------------------|
D|----------------------x3------------| 
A|------------------------------------|
D|-6b-6b-6b-6b-000-0-0-----6b-6b--0---|
PM             ... . .		

	1.8 Guitar 1 Only first time, then Guitar 2 aswell the second Time. 1.02-1:15
e|-----------------------------------------------------------|
B|-----------------------------------------------------------|
G|-----------------------------------------------------------|
D|------------------------x2---------------------------------| x2
A|-------------------------------------------0-------1-------|
D|-1--0-1--0-1--0-1-2-1-0----1--0-1-0--0-1-4---0-1-4---------|
PM .  . .  . .  . . . . .    .  . . .  .       .
	
	1.9 Guitar 1 1:15-1:28
e|-----------------------------------------------------------|
B|-----------------------------------------------------------|
G|-----------------------------------------------------------|
D|------------------------x2---------------------------------| x2
A|-------------------------------------------0-------1-------|
D|-1--0-1--0-1--0-1-2-1-0----1--0-1-0--0-1-4---0-1-4---------|
PM .  . .  . .  . . . . .    .  . . .  .       .
	
	1.9 Guitar 2 1:15-1:28
e|-----------------------------------------------------------|
B|-----------------------------------------------------------|
G|-----------------------------------------------------------|
D|------------------------x2---------------------------------| x2
A|-------------------------------------------0-------1-------|
D|-5--4-5--4-5--4-5-6-5-4----5--4-5-4--0-1-4---0-1-4---------|
PM .  . .  . .  . . . . .    .  . . .  .       .
	
	1.10 Both guitars  1:28-1:35
e|-------------------|
B|-------------------|
G|-------------------|
D|-------------------| x5
A|-------0-------1---|
D|-0-1-4---0-1-4-----|
PM .       .  

	1.11 Outro Riff - Guitar 1 1:35-2:03
e|-----------------------------------|
B|-----------------------------------|
G|-----------------------------------|
D|--------------------------x4-------| 
A|-4--4--4--44-4----2--2--2-----4----|
D|-4--4--4--44-4-xx-2--2--2-----4----|

	1.11 Outro Riff - Guitar 2  1:35-2:03
e|-------------------------------------------------------------------------|
B|-------------------------------------------------------------------------|
G|------------------------------6--6--6--66-6--9-9-9--11-11-11-11-11--13---|
D|---------------------------x2-x--x--x--xx-x--x-x-x--x--x--x--x-x-x--x----| 
A|-4--4--4--44-4----2--2--2-----4--4--4--44-4--7-7-7--9--9--9--9-9-9--11---|
D|-4--4--4--44-4-xx-2--2--2------------------------------------------------|



************************************

| /   slide up
| \   slide down
| h   hammer-on
| p   pull-off
| ~   vibrato
| +   harmonic
| x   Mute note
| b   Bend
| pb  Pre-bend
| br  Bend release
| pbr Pre-bend release
| brb Bend release bend

************************************
comments
We did not receive enough feedback on this tab! Please rate:
print report bad tab
1 2 3 4 5
2 comments total.
0 reply
RiseAgainst123 wrote on July 4 2010, 01:06 pm

Great tab man
Awesome song by an awesome band

0 reply
Jawkster wrote on February 9 2011, 10:44 am

Ooo cool tab mate, love the band~

I want to post or [tab]
guest
You may want to rate the tab now too:
select rating
Please do not post tabs as comments. Select "correction" instead!