Oops, an error
Loading. Please wait.

Dec 2 Tab

version 1
version 1

Whole song

Interactive

by Fact
1,238 views 1 this week
no commentswrite comment
1 2 3 4 5
please rate
add to favorites
launch autoscroll
font size
0
reset
how to read this tab
guitar tuner
Tab Pro tools
  • play this tab
  • loop segment
  • change instrument
  • show fretboard
  • metronome
×
Best way to learn
"Dec 2"
Autoscroll
slow
fast
+/-
esc
set tempo
stop
Difficulty
Tuning
intermediate
C G C F A D
FACT - Dec 2 (In The Blink Of An Eye)

I know this is lazily done and some might think the main riff would be easier to play in drop D
but just listen to the song and it'll make sense.

Tuning - Drop C (CGCFAD)

^ - String Bend

Intro
            x3                     x1
D||------------------------|-----------------------|
A||------------------------|-----------------------|
F||------------------------|-----------------------|
C||--22--------------------|--22-------------------|
G||--22--------------------|--22-------------------|
C||--22-2-4-6-2-6-4-2-4-2--|--22-2-4-6-2-6-4-2-3---|
                      ^                        ^
Verse 1
                                                                        
D||------------------------|-------------------------|
A||------------------------|-------------------------|
F||------------------------|---------------------3-3-|
C||------------------------|---------------------2-2-|
G||------------------------|-------------------------|
C||--2-2-6-4-2-4-2-4-2-2----|--2-2-6-4-2-4-2-4-------|
               ^   ^                     ^   ^

Chrous (Only tabbed the lead part. Each note is probably single, don't have delay to put on it)
                                                                            
D||-------------12-12------------|--14-14-12-12-------16-16-14-12--|
A||-------12-12-------12-12-9----|--------------12-12--------------|
F||--9-9----------------------11-|---------------------------------|
C||------------------------------|---------------------------------|
G||------------------------------|---------------------------------|
C||------------------------------|---------------------------------|

Verse 2
                                                                        
D||------------------------|-------------------------|
A||------------------------|-------------------------|
F||------------------------|-------------------------|
C||------------------------|---------------------3-3-|
G||------------------------|---------------------3-3-|
C||--2-2-6-4-2-4-2-4-2-2----|--2-2-6-4-2-4-2-4---3-3-|
               ^   ^                     ^   ^
     
Interval
                                                                    
D||--0000-0000-000000-0000-0000-00000---------|
A||--7777-7777-555555-7777-7777-77777---------|
F||--9999-9999--------9999-9999-99999---------|
C||--6666-6666--------7777-7777-77777---------|
G||-------7777--------------------------------|
C||-------------------------------------------|

(Apologies for not tabbing out the awkward rhytm and pinch harmonics for this section)
                                                                          
D||-----------------------------|
A||-----------------------------|
F||-----------------------------|
C||-----------------------------|
G||-----------------------------|
C||--2-4-2-4-2-4-2-4-2-4-2-4-2--|
               ^           ^


D||-------------12-12------------|--14-14-12-12----------------------|
A||-------12-12-------12-12-9----|--------------12-12-9-9-10-10-12-12|
F||--9-9----------------------11-|-----------------------------------|  
C||------------------------------|-----------------------------------|
G||------------------------------|-----------------------------------|
C||------------------------------|-----------------------------------|


D||------------------12-12-14-14-|------------------12-12-14-14-|
A||--9-9-10-10-12-12-------------|--9-9-10-10-12-12-------------|
F||------------------------------|------------------------------|  
C||------------------------------|------------------------------|
G||------------------------------|------------------------------|
C||------------------------------|------------------------------|


D||--14-14-12-12-------16-16-14-12--|--14-14-12-12-------16-16-14-12|
A||--------------12-12--------------|----------------12-12----------|
F||---------------------------------|-------------------------------|
C||---------------------------------|-------------------------------|
G||---------------------------------|-------------------------------|
C||---------------------------------|-------------------------------|

(Picked really fast)

D||-16-14-17-16-19-24-23-19-17-16-14-17-16-14-12-|
A||----------------------------------------------|
F||----------------------------------------------|
C||----------------------------------------------|
G||----------------------------------------------|
C||----------------------------------------------|

Outro

D||------------------------|-------------------------|
A||------------------------|-------------------------|
F||------------------------|-------------------------|
C||------------------------|---------------------3-3-|
G||------------------------|---------------------3-3-|
C||--2-2-6-4-2-4-2-4-2-2---|--2-2-6-4-2-4-2-4---3-3--|
               ^   ^                     ^   ^
D||-----------------------------------|
A||-----------------------------------|
F||-----------------------------------|
C||----------------------------3-3-3-2|
G||----------------------------3-3-3-2|
C||--2-2-6-4-2-4-2-4-2-4-2-4-2-3-3-3-2|
               ^   ^
comments
We did not receive enough feedback on this tab! Please rate:
print report bad tab
1 2 3 4 5
I want to post or [tab]
guest
You may want to rate the tab now too:
select rating
Please do not post tabs as comments. Select "correction" instead!