Oops, an error
Loading. Please wait.

California Dreamin Tab

by Faction
2,631 views 3 this week
no commentswrite comment
1 2 3 4 5
1 last vote to show rating
add to favorites
launch autoscroll
font size
0
reset
how to read this tab
guitar tuner
×
Best way to learn
"California Dreamin"
Autoscroll
slow
fast
+/-
esc
set tempo
stop
The Faction - California Dreamin'

  Intro
e|-----0---3-1-0-----0---3-1-0-----5-6-5-4-1-0-1-3-------|
B|---3---3---------3---3---------3-----------------------|
G|-2-------------2-------------2-------------------------|
D|-------------------------------------------------------|
A|-------------------------------------------------------|
E|-------------------------------------------------------|

e|-10--8-6-5---------------------------------------------|
B|--8--8-8-5---------------------------------------------|
G|-------------------------------------------------------|
D|-------------------------------------------------------|
A|-------------------------------------------------------|
E|-------------------------------------------------------|


Chorus... repeat 2x

     D     C     B     C     A
e|-------------------------------------------------------|
B|-------------------------------------------------------|
G|---7-----5-----3-----5---------------------------------|
D|---7-----5-----3-----5-----7---------------------------|
A|---5-----3-----1-----3-----7---------------------------|
E|---------------------------5---------------------------|

Verse... repeat 2x

     Dm      C       B       C        A     A7
e|-------1-0---------------------------------------------|
B|-----------------1-------3-------1-----2-----2---------|
G|-----2---------0-------3-------0-------2-----0---------|
D|---0---------2-------3-------2---------2-----2-3-2-0---|
A|-----------3-------1-------3--------0--0--0--0-------3-|
E|-------------------------------------------------------|

Chorus... 2x
Solo (same as chorus) 2x
Chorus... 2x

End... repeat 4x (both guitars end on Dm)

Guitar one
    Dm
e|----0-3-1-0---0-3-1-0----------------------------------|
B|---3-3-------3-3---------------------------------------|
G|--2---------2------------------------------------------|
D|-------------------------------------------------------|
A|-------------------------------------------------------|
E|-------------------------------------------------------|

Guitar two
    D     C     B     C
e|-------------------------------------------------------|
B|-------------------------------------------------------|
G|--7-----5-----3-----5----------------------------------|
D|--7-----5-----3-----5----------------------------------|
A|--5-----3-----1-----3----------------------------------|
E|-------------------------------------------------------|


(in my opinion)
Sections of the intro are palm muted.
The solo, like most punk rock, sounds better if you just freestyle it.

You can just listen to those parts to figure it out, its not too tough.


Feedback: E_Town_Punk@hotmail.com
Suggest correction
Give kudos to tab author, rate the tab!
1 2 3 4 5
comments
print report bad tab
guest
You may want to rate the tab now too:
select rating
Wanna post a correction for this tab? Suggest correction