Oops, an error
Loading. Please wait.

Tao Tab

version 1
version 1

Whole song

Interactive

1,467 views 1 this week
no commentswrite comment
1 2 3 4 5
please rate
add to favorites
launch autoscroll
font size
0
reset
how to read this tab
guitar tuner
Autoscroll
slow
fast
+/-
esc
set tempo
stop
Help us to improve Ultimate-Guitar.com Take our survey!
×
Contributor
Schecter Man 6,963
Band: Factory 81
Song: TAO
CD: Go to www.factory81.net to get the song.
Tabbed By: BlindedRhythm
E-mail: MndlessGuitarist@hotmail.com

Tuning: Dropped-C (C G C F A D)

Intro(w/ clean tone)
|----------------------------------------------------|
|-------------------------------8-----------8--------|
|-----0------------0--------------7---7-------7---5^-|
|---4---4---4----4---4--------------5-----------5----|
|-2-------2---/5-------5-5----5-----------5----------|
|---------------------------5-----------5------------|

|---------------------------------------------------|
|-------------------------------8-----------8-------|
|-----0------------0--------------7---7-------7---0-|
|---4---4---4----4---4--------------5-----------5---|
|-2-------2---/5-------5-5----5-----------5---------|
|---------------------------5-----------5-----------|

|------------------------------------------------------------------------|
|-----------------------------------8----------------------8-------------|
|-----0------------0-------7--7-7-7---7-7-7-7-7-7-7--7-7-7---7-7-7-7-7-7-|
|---4---4---4----4---4-----5--5-5-5-----5-5-5-5-5-5--5-5-5-----5-5-5-5-5-|
|-2-------2---/5-------5-5-5--5-5-5-----5-5-5-5-5-5--5-5-5-----5-5-5-5-5-|
|--------------------------5--5-5-5-----5-5-5-5-5-5--5-5-5-----5-5-5-5-5-|
   ^Distortion comes in

1st Verse
|------------------------------------------------------------------------|
|-----------------------------------8----------------------8-------------|
|-----0------------0-------7--7-7-7---7-7-7-7-7-7-7--7-7-7---7-7-7-7-7-7-|
|---4---4---4----4---4-----5--5-5-5-----5-5-5-5-5-5--5-5-5-----5-5-5-5-5-|
|-2-------2---/5-------5-5-5--5-5-5-----5-5-5-5-5-5--5-5-5-----5-5-5-5-5-|
|--------------------------5--5-5-5-----5-5-5-5-5-5--5-5-5-----5-5-5-5-5-|x2

Chorus
|-------------------------------------------------|
|-------------------------------------------------|
|-4--4-4-4-4--4-4-4-4-4-4-7--7-7-7-7--7-7-7-7-7-7-|
|-4--4-4-4-4--4-4-4-4-4-4-5--5-5-5-5--5-5-5-5-5-5-|
|-2--2-2-2-2--2-2-2-2-2-2-5--5-5-5-5--5-5-5-5-5-5-|
|-------------------------5--5-5-5-5--5-5-5-5-5-5-|

 First time
|-----------------------|---------------------------------------|
|-----------------------|---------------------------------------|
|-----------------------|-11-11-11-11-11-11-9-9-9-9-9-9-9-9-9-9-|
|-2--2-2-2-2--2-2-2-2-2-|-x--x--x--x--x--x--x-x-x-x-x-x-x-x-x-x-|
|-2--2-2-2-2--2-2-2-2-2-|-9--9--9--9--9--9--7-7-7-7-7-7-7-7-7-7-|
|-2--2-2-2-2--2-2-2-2-2-|---------------------------------------|
       PM-|

Second time
|-------------------------------------------------|
|-------------------------------------------------|
|-11-11-11-11-11-11-12-12-12-12-12-12-12-12-12-12-|
|-x--x--x--x--x--x--x--x--x--x--x--x--x--x--x--x--|
|-9--9--9--9--9--9--10-10-10-10-10-10-10-10-10-10-|
|-------------------------------------------------|

2nd Verse
|---------------------------------------------------|
|-------------------------------8-----------8-------|
|-----0------------0--------------7---7-------7---0-|
|---4---4---4----4---4--------------5-----------5---|
|-2-------2---/5-------5-5----5-----------5---------|
|---------------------------5-----------5-----------|x2

|------------------------------------------------------------------------|
|-----------------------------------8----------------------8-------------|
|-----0------------0-------7--7-7-7---7-7-7-7-7-7-7--7-7-7---7-7-7-7-7-7-|
|---4---4---4----4---4-----5--5-5-5-----5-5-5-5-5-5--5-5-5-----5-5-5-5-5-|
|-2-------2---/5-------5-5-5--5-5-5-----5-5-5-5-5-5--5-5-5-----5-5-5-5-5-|
|--------------------------5--5-5-5-----5-5-5-5-5-5--5-5-5-----5-5-5-5-5-|

Repeat Chorus

Bridge
|---------------------------------------------------|
|-------------------------------8-----------8-------|
|-----0------------0--------------7---7-------7---0-|
|---4---4---4----4---4--------------5-----------5---|
|-2-------2---/5-------5-5----5-----------5---------|
|---------------------------5-----------5-----------|x2

|----------------------------------|
|-------------------------------8~-|
|-----0------------0----------7----|
|---4---4---4----4---4------5------|
|-2-------2---/5-------5-5---------|
|----------------------------------|

|------------------------------------|
|------------------------------------|
|------------------------------------|
|-2--2--2--2--2--2--0--0--0--8--8--8-|
|-2--2--2--2--2--2--0--0--0--8--8--8-|
|-2--2--2--2--2--2--0--0--0--8--8--8-|x10

Outro
|------------------------------------------------------------------------|
|-----------------------------------8----------------------8-------------|
|-----0------------0-------7--7-7-7---7-7-7-7-7-7-7--7-7-7---7-7-7-7-7-7-|
|---4---4---4----4---4-----5--5-5-5-----5-5-5-5-5-5--5-5-5-----5-5-5-5-5-|
|-2-------2---/5-------5-5-5--5-5-5-----5-5-5-5-5-5--5-5-5-----5-5-5-5-5-|
|--------------------------5--5-5-5-----5-5-5-5-5-5--5-5-5-----5-5-5-5-5-|x2

|-----------------------------------|
|-8--8-8-8-8--8-8-8-8-8-8-8----8~---|
|-7--7-7-7-7--7-7-7-7-7-7-7------7~-|
|-5--5-5-5-5--5-5-5-5-5-5-5--5~-----|
|-5--5-5-5-5--5-5-5-5-5-5-5--5~-----|
|-5--5-5-5-5--5-5-5-5-5-5-5--5~-----|

That's the song.
comments
We did not receive enough feedback on this tab! Please rate:
print report bad tab
1 2 3 4 5
I want to post or [tab]
guest
You may want to rate the tab now too:
select rating
Please do not post tabs as comments. Select "correction" instead!