Oops, an error
Loading. Please wait.

Ni Falta Le Hace tab

version 2
version 2

Whole song

17 views 1 this week
no commentswrite comment
1 2 3 4 5
3 more votes to show rating
add to favorites
×
Save as Personal and add changes to this tab that will be seen only by you. Learn more ›
×
You can save this tab as Personal to edit and correct it or add notes. All changes will be seen only by you. Learn more »
launch autoscroll
font size
0
reset
how to read this tab
guitar tuner
edit
Autoscroll
slow
fast
+/-
esc
set tempo
stop
ACORDES (EADGBe)

B7/F#: 221202 (se puede omitir pulsar la quinta cuerda, asi sin tener
               que apretarla, pero queda a criterio de ustedes)
Aclaraciones debajo.

(Por supuesto que no se olviden los compases iniciales)
COMPASES INICIALES: E

INTRODUCCION:
   E              A       B7      B7/F#   E     A        B7  B7/F#
e|----------------------------------------0-------------------
B|----0--------0--2-0--------------0-2-4---0----2-0-----------
G|-----2--1--2-------2-1-1------1-2---------1------2-1-1------
D|--2---------------------4----4-------------2-----------4----
A|------------------------------------------------------------
E|------------------------------------------------------------
(entra bandoneon/acordeon)
   E              A       B7      B7/F#   E     A        B7 E
e|----------------------------------------0-------------------
B|----0--------0--2-0--------------0-2-4---0----0-------------
G|-----2--1--2-------2-1-1------1-2---------1-----2-1---------
D|--2---------------------4----4-------------2---------4-4--2-
A|------------------------------------------------------------
E|------------------------------------------------------------

   E
Ni falta le hace llamarme
   C#m
Vuelvo cada vez que puedo
   A               E
Me va tirando el camino
           B7  B7/F#      E
Que me lleva hasta mi pueblo.

INTER: E A B7 B7/F#

Es de una media mañana
Que se ensilla en el remanso
Por donde anduve de chango
Bien montado en mi caballo.

   E                      E-B7 C#m
Su cielo tiene guirnaldas        [Que...]
    C#m                      C#m-B
Que cuelgan de las estrellas
    A               E
Y una prendida a la otra
     B7 B7/F#     E
Iluminan mi querencia.

Poco a poquito la vida
De allí me ha venido arriando
Y por más lejos que me lleve
Yo siempre vuelvo a mi pago.

INTRODUCCION (de nuevo)

Aún tiene esa inocencia
La de sus primeros años
Que cada uno de sus hijos
Suele llevar de la mano.

Una vuelta pa' su plaza
Radiante y muy buena moza
Que guarda entre sus banquitos
Amores, sueños e historias.

Suele acariciar la lluvia
Los cultivos de sus campos
Y en cuantito el sol asoma
Lava su cara en los charcos.

Poco a poquito...


Aclaraciones: la cancion en sí es siempre la misma sucesión de acordes
con distintos juegos entre los mismos, teniendo en cuenta el rasgueo
de una buena chacarera... En las estrofas anteriores al estribillo no
hay guitarra rasgueada en la version de estudio, pero aqui les he puesto
para que puedan tocarla tranquilamente con una sola guitarra.

            
            
Suggest correction
Creating personal tab
Creating personal tab
You can edit any tab online and save it as your Personal.

You can edit, replace or remove any tab part or add personal notes – all changes will be seen only by you.

Personal tabs can be accessed anytime from any device, even offline.
Learn more »
Give kudos to tab author, rate the tab!
1 2 3 4 5
comments
print report bad tab
guest
Wanna post a correction for this tab? Suggest correction